  0
SECTION
  2
HEADER
  9
$ACADVER
  1
AC1018
  9
$ACADMAINTVER
 70
     0
  9
$DWGCODEPAGE
  3
ANSI_932
  9
$TITLE
  1
4FP-Uzx
  9
$SUBJECT
  1
旗ポール
  9
$AUTHOR
  1
修正tokoro
  9
$KEYWORDS
  1
FP040UZX
  9
$COMMENTS
  1
 
  9
$LASTSAVEDBY
  1
修正tokoro
  9
$CUSTOMPROPERTYTAG
  1
 
  9
$CUSTOMPROPERTY
  1
 
  9
$CUSTOMPROPERTYTAG
  1
 
  9
$CUSTOMPROPERTY
  1
 
  9
$CUSTOMPROPERTYTAG
  1
 
  9
$CUSTOMPROPERTY
  1
 
  9
$CUSTOMPROPERTYTAG
  1
 
  9
$CUSTOMPROPERTY
  1
 
  9
$CUSTOMPROPERTYTAG
  1
 
  9
$CUSTOMPROPERTY
  1
 
  9
$CUSTOMPROPERTYTAG
  1
 
  9
$CUSTOMPROPERTY
  1
 
  9
$CUSTOMPROPERTYTAG
  1
 
  9
$CUSTOMPROPERTY
  1
 
  9
$CUSTOMPROPERTYTAG
  1
 
  9
$CUSTOMPROPERTY
  1
 
  9
$CUSTOMPROPERTYTAG
  1
 
  9
$CUSTOMPROPERTY
  1
 
  9
$CUSTOMPROPERTYTAG
  1
 
  9
$CUSTOMPROPERTY
  1
 
  9
$INSBASE
 10
0.0
 20
0.0
 30
0.0
  9
$EXTMIN
 10
0.0
 20
0.0
 30
0.0
  9
$EXTMAX
 10
420.0
 20
297.0
 30
0.0
  9
$LIMMIN
 10
0.0
 20
0.0
  9
$LIMMAX
 10
420.0
 20
297.0
  9
$ORTHOMODE
 70
     0
  9
$REGENMODE
 70
     1
  9
$FILLMODE
 70
     1
  9
$QTEXTMODE
 70
     0
  9
$MIRRTEXT
 70
     1
  9
$LTSCALE
 40
8.4
  9
$ATTMODE
 70
     1
  9
$TEXTSIZE
 40
0.2
  9
$TRACEWID
 40
0.05
  9
$TEXTSTYLE
  7
STANDARD
  9
$CLAYER
  8
0
  9
$CELTYPE
  6
BYBLOCK
  9
$CECOLOR
 62
   256
  9
$CELTSCALE
 40
1.0
  9
$DISPSILH
 70
     0
  9
$DIMSCALE
 40
1.0
  9
$DIMASZ
 40
0.18
  9
$DIMEXO
 40
0.0625
  9
$DIMDLI
 40
0.38
  9
$DIMRND
 40
0.0
  9
$DIMDLE
 40
0.0
  9
$DIMEXE
 40
0.18
  9
$DIMTP
 40
0.0
  9
$DIMTM
 40
0.0
  9
$DIMTXT
 40
0.18
  9
$DIMCEN
 40
0.09
  9
$DIMTSZ
 40
0.0
  9
$DIMTOL
 70
     0
  9
$DIMLIM
 70
     0
  9
$DIMTIH
 70
     1
  9
$DIMTOH
 70
     1
  9
$DIMSE1
 70
     0
  9
$DIMSE2
 70
     0
  9
$DIMTAD
 70
     0
  9
$DIMZIN
 70
     0
  9
$DIMBLK
  1

  9
$DIMASO
 70
     1
  9
$DIMSHO
 70
     1
  9
$DIMPOST
  1

  9
$DIMAPOST
  1

  9
$DIMALT
 70
     0
  9
$DIMALTD
 70
     2
  9
$DIMALTF
 40
25.4
  9
$DIMLFAC
 40
1.0
  9
$DIMTOFL
 70
     0
  9
$DIMTVP
 40
0.0
  9
$DIMTIX
 70
     0
  9
$DIMSOXD
 70
     0
  9
$DIMSAH
 70
     0
  9
$DIMBLK1
  1

  9
$DIMBLK2
  1

  9
$DIMSTYLE
  2
STANDARD
  9
$DIMCLRD
 70
     0
  9
$DIMCLRE
 70
     0
  9
$DIMCLRT
 70
     0
  9
$DIMTFAC
 40
1.0
  9
$DIMGAP
 40
0.09
  9
$DIMJUST
 70
     0
  9
$DIMSD1
 70
     0
  9
$DIMSD2
 70
     0
  9
$DIMTOLJ
 70
     1
  9
$DIMTZIN
 70
     0
  9
$DIMALTZ
 70
     0
  9
$DIMALTTZ
 70
     0
  9
$DIMUPT
 70
     0
  9
$DIMDEC
 70
     4
  9
$DIMTDEC
 70
     4
  9
$DIMALTU
 70
     2
  9
$DIMALTTD
 70
     2
  9
$DIMTXSTY
  7
STANDARD
  9
$DIMAUNIT
 70
     0
  9
$DIMADEC
 70
     0
  9
$DIMALTRND
 40
0.0
  9
$DIMAZIN
 70
     0
  9
$DIMDSEP
 70
    46
  9
$DIMATFIT
 70
     3
  9
$DIMFRAC
 70
     0
  9
$DIMLDRBLK
  1

  9
$DIMLUNIT
 70
     2
  9
$DIMLWD
 70
    -2
  9
$DIMLWE
 70
    -2
  9
$DIMTMOVE
 70
     0
  9
$LUNITS
 70
     2
  9
$LUPREC
 70
     4
  9
$SKETCHINC
 40
0.1
  9
$FILLETRAD
 40
0.5
  9
$AUNITS
 70
     0
  9
$AUPREC
 70
     0
  9
$MENU
  1
.
  9
$ELEVATION
 40
0.0
  9
$PELEVATION
 40
0.0
  9
$THICKNESS
 40
0.0
  9
$LIMCHECK
 70
     0
  9
$CHAMFERA
 40
0.0
  9
$CHAMFERB
 40
0.0
  9
$CHAMFERC
 40
0.0
  9
$CHAMFERD
 40
0.0
  9
$SKPOLY
 70
     0
  9
$TDCREATE
 40
2447893.375
  9
$TDUCREATE
 40
0.0
  9
$TDUPDATE
 40
2460012.760515532
  9
$TDUUPDATE
 40
2460012.385515532
  9
$TDINDWG
 40
0.0
  9
$TDUSRTIMER
 40
0.0
  9
$USRTIMER
 70
     1
  9
$ANGBASE
 50
0.0
  9
$ANGDIR
 70
     0
  9
$PDMODE
 70
     0
  9
$PDSIZE
 40
0.0
  9
$PLINEWID
 40
0.0
  9
$SPLFRAME
 70
     0
  9
$SPLINETYPE
 70
     6
  9
$SPLINESEGS
 70
     8
  9
$HANDSEED
  5
394
  9
$SURFTAB1
 70
     6
  9
$SURFTAB2
 70
     6
  9
$SURFTYPE
 70
     6
  9
$SURFU
 70
     6
  9
$SURFV
 70
     6
  9
$UCSBASE
  2

  9
$UCSNAME
  2

  9
$UCSORG
 10
0.0
 20
0.0
 30
0.0
  9
$UCSXDIR
 10
1.0
 20
0.0
 30
0.0
  9
$UCSYDIR
 10
0.0
 20
1.0
 30
0.0
  9
$UCSORTHOREF
  2

  9
$UCSORTHOVIEW
 70
     0
  9
$UCSORGTOP
 10
0.0
 20
0.0
 30
0.0
  9
$UCSORGBOTTOM
 10
0.0
 20
0.0
 30
0.0
  9
$UCSORGLEFT
 10
0.0
 20
0.0
 30
0.0
  9
$UCSORGRIGHT
 10
0.0
 20
0.0
 30
0.0
  9
$UCSORGFRONT
 10
0.0
 20
0.0
 30
0.0
  9
$UCSORGBACK
 10
0.0
 20
0.0
 30
0.0
  9
$PUCSBASE
  2

  9
$PUCSNAME
  2

  9
$PUCSORG
 10
0.0
 20
0.0
 30
0.0
  9
$PUCSXDIR
 10
1.0
 20
0.0
 30
0.0
  9
$PUCSYDIR
 10
0.0
 20
1.0
 30
0.0
  9
$PUCSORTHOREF
  2

  9
$PUCSORTHOVIEW
 70
     0
  9
$PUCSORGTOP
 10
0.0
 20
0.0
 30
0.0
  9
$PUCSORGBOTTOM
 10
0.0
 20
0.0
 30
0.0
  9
$PUCSORGLEFT
 10
0.0
 20
0.0
 30
0.0
  9
$PUCSORGRIGHT
 10
0.0
 20
0.0
 30
0.0
  9
$PUCSORGFRONT
 10
0.0
 20
0.0
 30
0.0
  9
$PUCSORGBACK
 10
0.0
 20
0.0
 30
0.0
  9
$USERI1
 70
     0
  9
$USERI2
 70
     0
  9
$USERI3
 70
     0
  9
$USERI4
 70
     0
  9
$USERI5
 70
     0
  9
$USERR1
 40
0.0
  9
$USERR2
 40
0.0
  9
$USERR3
 40
0.0
  9
$USERR4
 40
0.0
  9
$USERR5
 40
0.0
  9
$WORLDVIEW
 70
     1
  9
$SHADEDGE
 70
     3
  9
$SHADEDIF
 70
    70
  9
$TILEMODE
 70
     1
  9
$MAXACTVP
 70
    64
  9
$PINSBASE
 10
0.0
 20
0.0
 30
0.0
  9
$PLIMCHECK
 70
     0
  9
$PEXTMIN
 10
1.000000000000000E+20
 20
1.000000000000000E+20
 30
1.000000000000000E+20
  9
$PEXTMAX
 10
-1.000000000000000E+20
 20
-1.000000000000000E+20
 30
-1.000000000000000E+20
  9
$PLIMMIN
 10
0.0
 20
0.0
  9
$PLIMMAX
 10
12.0
 20
9.0
  9
$UNITMODE
 70
     0
  9
$VISRETAIN
 70
     1
  9
$PLINEGEN
 70
     0
  9
$PSLTSCALE
 70
     1
  9
$TREEDEPTH
 70
  3020
  9
$CMLSTYLE
  2

  9
$CMLJUST
 70
     0
  9
$CMLSCALE
 40
1.0
  9
$PROXYGRAPHICS
 70
     1
  9
$MEASUREMENT
 70
     0
  9
$CELWEIGHT
370
    -1
  9
$ENDCAPS
280
     0
  9
$JOINSTYLE
280
     0
  9
$LWDISPLAY
290
     0
  9
$INSUNITS
 70
     0
  9
$HYPERLINKBASE
  1

  9
$STYLESHEET
  1

  9
$XEDIT
290
     1
  9
$CEPSNTYPE
380
     0
  9
$PSTYLEMODE
290
     1
  9
$FINGERPRINTGUID
  2
{ADCA2612-9151-49E5-B933-F879731FB4FE}
  9
$VERSIONGUID
  2
{FAEB1C32-E019-11D5-929B-00C0DF256EC4}
  9
$EXTNAMES
290
     1
  9
$PSVPSCALE
 40
0.0
  9
$OLESTARTUP
290
     0
  9
$SORTENTS
280
   127
  9
$INDEXCTL
280
     0
  9
$HIDETEXT
280
     1
  9
$XCLIPFRAME
290
     0
  9
$HALOGAP
280
     0
  9
$OBSCOLOR
 70
   257
  9
$OBSLTYPE
280
     0
  9
$INTERSECTIONDISPLAY
280
     0
  9
$INTERSECTIONCOLOR
 70
   257
  9
$DIMASSOC
280
     2
  9
$PROJECTNAME
  1

  0
ENDSEC
  0
SECTION
  2
CLASSES
  0
CLASS
  1
SCALE
  2
AcDbScale
  3
ObjectDBX Classes
 90
     1153
 91
        4
280
     0
281
     0
  0
CLASS
  1
VISUALSTYLE
  2
AcDbVisualStyle
  3
ObjectDBX Classes
 90
     4095
 91
        4
280
     0
281
     0
  0
CLASS
  1
MATERIAL
  2
AcDbMaterial
  3
ObjectDBX Classes
 90
     1153
 91
        4
280
     0
281
     0
  0
CLASS
  1
ACDBDICTIONARYWDFLT
  2
AcDbDictionaryWithDefault
  3
ObjectDBX Classes
 90
        0
 91
        4
280
     0
281
     0
  0
CLASS
  1
DICTIONARYVAR
  2
AcDbDictionaryVar
  3
ObjectDBX Classes
 90
        0
 91
        4
280
     0
281
     0
  0
ENDSEC
  0
SECTION
  2
TABLES
  0
TABLE
  2
VPORT
  5
8
102
{ACAD_XDICTIONARY
360
355
102
}
330
0
100
AcDbSymbolTable
 70
     1
  0
VPORT
  5
310
330
8
100
AcDbSymbolTableRecord
100
AcDbViewportTableRecord
  2
*ACTIVE
 70
     0
 10
0.0
 20
0.0
 11
1.0
 21
1.0
 12
210.0
 22
148.5
 13
0.0
 23
0.0
 14
1.0
 24
1.0
 15
0.0
 25
0.0
 16
0.0
 26
0.0
 36
1.0
 17
0.0
 27
0.0
 37
0.0
 40
420.0
 41
1.4787878787879
 42
50.0
 43
0.0
 44
0.0
 50
0.0
 51
0.0
 71
     0
 72
   100
 73
     1
 74
     1
 75
     0
 76
     0
 77
     0
 78
     0
281
     0
 65
     1
110
0.0
120
0.0
130
0.0
111
1.0
121
0.0
131
0.0
112
0.0
122
1.0
132
0.0
 79
     0
146
0.0
  0
ENDTAB
  0
TABLE
  2
LTYPE
  5
5
330
0
100
AcDbSymbolTable
 70
    25
  0
LTYPE
  5
12
330
5
100
AcDbSymbolTableRecord
100
AcDbLinetypeTableRecord
  2
BYBLOCK
 70
     0
  3

 72
    65
 73
     0
 40
0.0
  0
LTYPE
  5
13
330
5
100
AcDbSymbolTableRecord
100
AcDbLinetypeTableRecord
  2
BYLAYER
 70
     0
  3

 72
    65
 73
     0
 40
0.0
  0
LTYPE
  5
14
330
5
100
AcDbSymbolTableRecord
100
AcDbLinetypeTableRecord
  2
CONTINUOUS
 70
     0
  3
Solid line
 72
    65
 73
     0
 40
0.0
  0
LTYPE
  5
20
330
5
100
AcDbSymbolTableRecord
100
AcDbLinetypeTableRecord
  2
BORDER
 70
     0
  3
__ __ . __ __ . __ __ . __ __ . __ __ . __ __ .
 72
    65
 73
     6
 40
1.75
 49
0.5
 74
     0
 49
-0.25
 74
     0
 49
0.5
 74
     0
 49
-0.25
 74
     0
 49
0.0
 74
     0
 49
-0.25
 74
     0
  0
LTYPE
  5
21
330
5
100
AcDbSymbolTableRecord
100
AcDbLinetypeTableRecord
  2
BORDER2
 70
     0
  3
__.__.__.__.__.__.__.__.__.__.__.__.__.__.__.__
 72
    65
 73
     6
 40
0.875
 49
0.25
 74
     0
 49
-0.125
 74
     0
 49
0.25
 74
     0
 49
-0.125
 74
     0
 49
0.0
 74
     0
 49
-0.125
 74
     0
  0
LTYPE
  5
22
330
5
100
AcDbSymbolTableRecord
100
AcDbLinetypeTableRecord
  2
BORDERX2
 70
     0
  3
____  ____  .  ____  ____  .  ____  ____  .  __
 72
    65
 73
     6
 40
3.5
 49
1.0
 74
     0
 49
-0.5
 74
     0
 49
1.0
 74
     0
 49
-0.5
 74
     0
 49
0.0
 74
     0
 49
-0.5
 74
     0
  0
LTYPE
  5
23
330
5
100
AcDbSymbolTableRecord
100
AcDbLinetypeTableRecord
  2
CENTER
 70
     0
  3
____ _ ____ _ ____ _ ____ _ ____ _ ____ _ ____ 
 72
    65
 73
     4
 40
2.0
 49
1.25
 74
     0
 49
-0.25
 74
     0
 49
0.25
 74
     0
 49
-0.25
 74
     0
  0
LTYPE
  5
24
330
5
100
AcDbSymbolTableRecord
100
AcDbLinetypeTableRecord
  2
CENTER2
 70
     0
  3
___ _ ___ _ ___ _ ___ _ ___ _ ___ _ ___ _ ___ _
 72
    65
 73
     4
 40
1.125
 49
0.75
 74
     0
 49
-0.125
 74
     0
 49
0.125
 74
     0
 49
-0.125
 74
     0
  0
LTYPE
  5
25
330
5
100
AcDbSymbolTableRecord
100
AcDbLinetypeTableRecord
  2
CENTERX2
 70
     0
  3
________  __  ________  __  ________  __  _____
 72
    65
 73
     4
 40
4.0
 49
2.5
 74
     0
 49
-0.5
 74
     0
 49
0.5
 74
     0
 49
-0.5
 74
     0
  0
LTYPE
  5
26
330
5
100
AcDbSymbolTableRecord
100
AcDbLinetypeTableRecord
  2
DASHDOT
 70
     0
  3
__ . __ . __ . __ . __ . __ . __ . __ . __ . __
 72
    65
 73
     4
 40
1.0
 49
0.5
 74
     0
 49
-0.25
 74
     0
 49
0.0
 74
     0
 49
-0.25
 74
     0
  0
LTYPE
  5
27
330
5
100
AcDbSymbolTableRecord
100
AcDbLinetypeTableRecord
  2
DASHDOT2
 70
     0
  3
_._._._._._._._._._._._._._._._._._._._._._._._
 72
    65
 73
     4
 40
0.5
 49
0.25
 74
     0
 49
-0.125
 74
     0
 49
0.0
 74
     0
 49
-0.125
 74
     0
  0
LTYPE
  5
28
330
5
100
AcDbSymbolTableRecord
100
AcDbLinetypeTableRecord
  2
DASHDOTX2
 70
     0
  3
____  .  ____  .  ____  .  ____  .  ____  .  __
 72
    65
 73
     4
 40
2.0
 49
1.0
 74
     0
 49
-0.5
 74
     0
 49
0.0
 74
     0
 49
-0.5
 74
     0
  0
LTYPE
  5
29
330
5
100
AcDbSymbolTableRecord
100
AcDbLinetypeTableRecord
  2
DASHED
 70
     0
  3
__ __ __ __ __ __ __ __ __ __ __ __ __ __ __ __
 72
    65
 73
     2
 40
0.75
 49
0.5
 74
     0
 49
-0.25
 74
     0
  0
LTYPE
  5
2A
330
5
100
AcDbSymbolTableRecord
100
AcDbLinetypeTableRecord
  2
DASHED2
 70
     0
  3
_ _ _ _ _ _ _ _ _ _ _ _ _ _ _ _ _ _ _ _ _ _ _ _
 72
    65
 73
     2
 40
0.375
 49
0.25
 74
     0
 49
-0.125
 74
     0
  0
LTYPE
  5
2B
330
5
100
AcDbSymbolTableRecord
100
AcDbLinetypeTableRecord
  2
DASHEDX2
 70
     0
  3
____  ____  ____  ____  ____  ____  ____  ____ 
 72
    65
 73
     2
 40
1.5
 49
1.0
 74
     0
 49
-0.5
 74
     0
  0
LTYPE
  5
2C
330
5
100
AcDbSymbolTableRecord
100
AcDbLinetypeTableRecord
  2
DIVIDE
 70
     0
  3
____ . . ____ . . ____ . . ____ . . ____ . . __
 72
    65
 73
     6
 40
1.25
 49
0.5
 74
     0
 49
-0.25
 74
     0
 49
0.0
 74
     0
 49
-0.25
 74
     0
 49
0.0
 74
     0
 49
-0.25
 74
     0
  0
LTYPE
  5
2D
330
5
100
AcDbSymbolTableRecord
100
AcDbLinetypeTableRecord
  2
DIVIDE2
 70
     0
  3
__..__..__..__..__..__..__..__..__..__..__..__.
 72
    65
 73
     6
 40
0.625
 49
0.25
 74
     0
 49
-0.125
 74
     0
 49
0.0
 74
     0
 49
-0.125
 74
     0
 49
0.0
 74
     0
 49
-0.125
 74
     0
  0
LTYPE
  5
2E
330
5
100
AcDbSymbolTableRecord
100
AcDbLinetypeTableRecord
  2
DIVIDEX2
 70
     0
  3
________  .  .  ________  .  .  ________  .  . 
 72
    65
 73
     6
 40
2.5
 49
1.0
 74
     0
 49
-0.5
 74
     0
 49
0.0
 74
     0
 49
-0.5
 74
     0
 49
0.0
 74
     0
 49
-0.5
 74
     0
  0
LTYPE
  5
2F
330
5
100
AcDbSymbolTableRecord
100
AcDbLinetypeTableRecord
  2
DOT
 70
     0
  3
. . . . . . . . . . . . . . . . . . . . . . . .
 72
    65
 73
     2
 40
0.25
 49
0.0
 74
     0
 49
-0.25
 74
     0
  0
LTYPE
  5
30
330
5
100
AcDbSymbolTableRecord
100
AcDbLinetypeTableRecord
  2
DOT2
 70
     0
  3
...............................................
 72
    65
 73
     2
 40
0.125
 49
0.0
 74
     0
 49
-0.125
 74
     0
  0
LTYPE
  5
31
330
5
100
AcDbSymbolTableRecord
100
AcDbLinetypeTableRecord
  2
DOTX2
 70
     0
  3
.  .  .  .  .  .  .  .  .  .  .  .  .  .  .  . 
 72
    65
 73
     2
 40
0.5
 49
0.0
 74
     0
 49
-0.5
 74
     0
  0
LTYPE
  5
32
330
5
100
AcDbSymbolTableRecord
100
AcDbLinetypeTableRecord
  2
HIDDEN
 70
     0
  3
__ __ __ __ __ __ __ __ __ __ __ __ __ __ __ __
 72
    65
 73
     2
 40
0.375
 49
0.25
 74
     0
 49
-0.125
 74
     0
  0
LTYPE
  5
33
330
5
100
AcDbSymbolTableRecord
100
AcDbLinetypeTableRecord
  2
HIDDEN2
 70
     0
  3
_ _ _ _ _ _ _ _ _ _ _ _ _ _ _ _ _ _ _ _ _ _ _ _
 72
    65
 73
     2
 40
0.1875
 49
0.125
 74
     0
 49
-0.0625
 74
     0
  0
LTYPE
  5
34
330
5
100
AcDbSymbolTableRecord
100
AcDbLinetypeTableRecord
  2
HIDDENX2
 70
     0
  3
____ ____ ____ ____ ____ ____ ____ ____ ____ __
 72
    65
 73
     2
 40
0.75
 49
0.5
 74
     0
 49
-0.25
 74
     0
  0
LTYPE
  5
35
330
5
100
AcDbSymbolTableRecord
100
AcDbLinetypeTableRecord
  2
PHANTOM
 70
     0
  3
______  __  __  ______  __  __  ______  __  __ 
 72
    65
 73
     6
 40
2.5
 49
1.25
 74
     0
 49
-0.25
 74
     0
 49
0.25
 74
     0
 49
-0.25
 74
     0
 49
0.25
 74
     0
 49
-0.25
 74
     0
  0
LTYPE
  5
36
330
5
100
AcDbSymbolTableRecord
100
AcDbLinetypeTableRecord
  2
PHANTOM2
 70
     0
  3
___ _ _ ___ _ _ ___ _ _ ___ _ _ ___ _ _ ___ _ _
 72
    65
 73
     6
 40
1.25
 49
0.625
 74
     0
 49
-0.125
 74
     0
 49
0.125
 74
     0
 49
-0.125
 74
     0
 49
0.125
 74
     0
 49
-0.125
 74
     0
  0
LTYPE
  5
37
330
5
100
AcDbSymbolTableRecord
100
AcDbLinetypeTableRecord
  2
PHANTOMX2
 70
     0
  3
____________    ____    ____    ____________   
 72
    65
 73
     6
 40
5.0
 49
2.5
 74
     0
 49
-0.5
 74
     0
 49
0.5
 74
     0
 49
-0.5
 74
     0
 49
0.5
 74
     0
 49
-0.5
 74
     0
  0
ENDTAB
  0
TABLE
  2
LAYER
  5
2
330
0
100
AcDbSymbolTable
 70
     2
  0
LAYER
  5
E
330
2
100
AcDbSymbolTableRecord
100
AcDbLayerTableRecord
  2
0
 70
     0
 62
     7
  6
CONTINUOUS
370
    -3
390
354
  0
LAYER
  5
39
330
2
100
AcDbSymbolTableRecord
100
AcDbLayerTableRecord
  2
LEVEL001
 70
     0
 62
     7
  6
CONTINUOUS
370
    -3
390
354
  0
ENDTAB
  0
TABLE
  2
STYLE
  5
3
330
0
100
AcDbSymbolTable
 70
     2
  0
STYLE
  5
F
330
3
100
AcDbSymbolTableRecord
100
AcDbTextStyleTableRecord
  2
STANDARD
 70
     0
 40
0.0
 41
1.0
 50
0.0
 71
     0
 42
0.2
  3
TXT
  4
BIGFONT
  0
STYLE
  5
38
330
3
100
AcDbSymbolTableRecord
100
AcDbTextStyleTableRecord
  2
STANDARD1
 70
     4
 40
0.0
 41
1.0
 50
0.0
 71
     0
 42
0.2
  3
TXT
  4
BIGFONT
  0
ENDTAB
  0
TABLE
  2
VIEW
  5
6
330
0
100
AcDbSymbolTable
 70
     0
  0
ENDTAB
  0
TABLE
  2
UCS
  5
7
330
0
100
AcDbSymbolTable
 70
     0
  0
ENDTAB
  0
TABLE
  2
APPID
  5
9
330
0
100
AcDbSymbolTable
 70
     1
  0
APPID
  5
10
330
9
100
AcDbSymbolTableRecord
100
AcDbRegAppTableRecord
  2
ACAD
 70
     0
  0
ENDTAB
  0
TABLE
  2
DIMSTYLE
  5
A
330
0
100
AcDbSymbolTable
 70
     1
100
AcDbDimStyleTable
  0
DIMSTYLE
105
1D
102
{ACAD_REACTORS
330
1B
102
}
330
A
100
AcDbSymbolTableRecord
100
AcDbDimStyleTableRecord
  2
STANDARD
 70
     0
178
     0
340
F
  0
ENDTAB
  0
TABLE
  2
BLOCK_RECORD
  5
1
330
0
100
AcDbSymbolTable
 70
     0
  0
BLOCK_RECORD
  5
18
330
1
100
AcDbSymbolTableRecord
100
AcDbBlockTableRecord
  2
*MODEL_SPACE
340
312
  0
BLOCK_RECORD
  5
15
330
1
100
AcDbSymbolTableRecord
100
AcDbBlockTableRecord
  2
*PAPER_SPACE
340
313
  0
ENDTAB
  0
ENDSEC
  0
SECTION
  2
BLOCKS
  0
BLOCK
  5
19
330
18
100
AcDbEntity
  8
0
100
AcDbBlockBegin
  2
*MODEL_SPACE
 70
     0
 10
0.0
 20
0.0
 30
0.0
  3
*MODEL_SPACE
  1
*MODEL_SPACE
  0
ENDBLK
  5
1A
330
18
100
AcDbEntity
  8
0
100
AcDbBlockEnd
  0
BLOCK
  5
16
330
15
100
AcDbEntity
 67
     1
  8
0
100
AcDbBlockBegin
  2
*PAPER_SPACE
 70
     0
 10
0.0
 20
0.0
 30
0.0
  3
*PAPER_SPACE
  1
*PAPER_SPACE
  0
ENDBLK
  5
17
330
15
100
AcDbEntity
 67
     1
  8
0
100
AcDbBlockEnd
  0
ENDSEC
  0
SECTION
  2
ENTITIES
  0
LWPOLYLINE
  5
3A
330
18
100
AcDbEntity
  8
LEVEL001
  6
Continuous
 62
     3
370
    20
100
AcDbPolyline
 90
        4
 70
     1
 43
0.0
 10
10.0
 20
10.0
 10
410.0
 20
10.0
 10
410.0
 20
287.0
 10
10.0
 20
287.0
  0
LWPOLYLINE
  5
3B
330
18
100
AcDbEntity
  8
LEVEL001
  6
Continuous
 62
     3
370
    20
100
AcDbPolyline
 90
        4
 70
     1
 43
0.0
 10
346.0
 20
10.0
 10
410.0
 20
10.0
 10
410.0
 20
287.0
 10
346.0
 20
287.0
  0
LINE
  5
3C
330
18
100
AcDbEntity
  8
LEVEL001
  6
Continuous
 62
     3
370
    20
100
AcDbLine
 10
346.0
 20
20.0
 30
0.0
 11
410.0
 21
20.0
 31
0.0
  0
LINE
  5
3D
330
18
100
AcDbEntity
  8
LEVEL001
  6
Continuous
 62
     3
370
    20
100
AcDbLine
 10
346.0
 20
30.0
 30
0.0
 11
410.0
 21
30.0
 31
0.0
  0
LINE
  5
3E
330
18
100
AcDbEntity
  8
LEVEL001
  6
Continuous
 62
     3
370
    20
100
AcDbLine
 10
346.0
 20
40.0
 30
0.0
 11
410.0
 21
40.0
 31
0.0
  0
LINE
  5
3F
330
18
100
AcDbEntity
  8
LEVEL001
  6
Continuous
 62
     3
370
    20
100
AcDbLine
 10
346.0
 20
50.0
 30
0.0
 11
410.0
 21
50.0
 31
0.0
  0
LINE
  5
40
330
18
100
AcDbEntity
  8
LEVEL001
  6
Continuous
 62
     3
370
    20
100
AcDbLine
 10
346.0
 20
60.0
 30
0.0
 11
410.0
 21
60.0
 31
0.0
  0
TEXT
  5
41
330
18
100
AcDbEntity
  8
LEVEL001
 62
     3
370
    20
100
AcDbText
 10
349.97305288127
 20
230.40689837639
 30
0.0
 40
3.0
  1
 制
 41
0.75
 72
     5
 11
354.47305288127
 21
230.40689837639
 31
0.0
100
AcDbText
  0
TEXT
  5
42
330
18
100
AcDbEntity
  8
LEVEL001
 62
     3
370
    20
100
AcDbText
 10
349.97305288127
 20
226.40689837639
 30
0.0
 40
3.0
  1
 定
 41
0.75
 72
     5
 11
354.47305288127
 21
226.40689837639
 31
0.0
100
AcDbText
  0
TEXT
  5
43
330
18
100
AcDbEntity
  8
LEVEL001
 62
     3
370
    20
100
AcDbText
 10
349.97305288127
 20
222.40689837639
 30
0.0
 40
3.0
  1
 風
 41
0.75
 72
     5
 11
354.47305288127
 21
222.40689837639
 31
0.0
100
AcDbText
  0
TEXT
  5
44
330
18
100
AcDbEntity
  8
LEVEL001
 62
     3
370
    20
100
AcDbText
 10
349.97305288127
 20
218.40689837639
 30
0.0
 40
3.0
  1
 速
 41
0.75
 72
     5
 11
354.47305288127
 21
218.40689837639
 31
0.0
100
AcDbText
  0
TEXT
  5
45
330
18
100
AcDbEntity
  8
LEVEL001
 62
     3
370
    20
100
AcDbText
 10
349.97305288127
 20
214.40689837639
 30
0.0
 40
3.0
  1
(Vo)
 41
0.5
 72
     5
 11
355.97305288127
 21
214.40689837639
 31
0.0
100
AcDbText
  0
LINE
  5
46
330
18
100
AcDbEntity
  8
LEVEL001
  6
Continuous
 62
     3
370
    20
100
AcDbLine
 10
346.0
 20
90.0
 30
0.0
 11
410.0
 21
90.0
 31
0.0
  0
LINE
  5
47
330
18
100
AcDbEntity
  8
LEVEL001
  6
Continuous
 62
     3
370
    20
100
AcDbLine
 10
346.0
 20
85.0
 30
0.0
 11
410.0
 21
85.0
 31
0.0
  0
LINE
  5
48
330
18
100
AcDbEntity
  8
LEVEL001
  6
Continuous
 62
     3
370
    20
100
AcDbLine
 10
346.0
 20
95.0
 30
0.0
 11
410.0
 21
95.0
 31
0.0
  0
LINE
  5
49
330
18
100
AcDbEntity
  8
LEVEL001
  6
Continuous
 62
     3
370
    20
100
AcDbLine
 10
346.0
 20
100.0
 30
0.0
 11
410.0
 21
100.0
 31
0.0
  0
LINE
  5
4A
330
18
100
AcDbEntity
  8
LEVEL001
  6
Continuous
 62
     3
370
    20
100
AcDbLine
 10
346.0
 20
110.0
 30
0.0
 11
410.0
 21
110.0
 31
0.0
  0
LINE
  5
4B
330
18
100
AcDbEntity
  8
LEVEL001
  6
Continuous
 62
     3
370
    20
100
AcDbLine
 10
346.0
 20
120.0
 30
0.0
 11
410.0
 21
120.0
 31
0.0
  0
LINE
  5
4C
330
18
100
AcDbEntity
  8
LEVEL001
  6
Continuous
 62
     3
370
    20
100
AcDbLine
 10
346.0
 20
130.0
 30
0.0
 11
410.0
 21
130.0
 31
0.0
  0
LINE
  5
4D
330
18
100
AcDbEntity
  8
LEVEL001
  6
Continuous
 62
     3
370
    20
100
AcDbLine
 10
346.0
 20
140.0
 30
0.0
 11
410.0
 21
140.0
 31
0.0
  0
LINE
  5
4E
330
18
100
AcDbEntity
  8
LEVEL001
  6
Continuous
 62
     3
370
    20
100
AcDbLine
 10
354.0
 20
100.0
 30
0.0
 11
354.0
 21
80.0
 31
0.0
  0
LINE
  5
4F
330
18
100
AcDbEntity
  8
LEVEL001
  6
Continuous
 62
     3
370
    20
100
AcDbLine
 10
346.0
 20
105.0
 30
0.0
 11
410.0
 21
105.0
 31
0.0
  0
LINE
  5
50
330
18
100
AcDbEntity
  8
LEVEL001
  6
Continuous
 62
     3
370
    20
100
AcDbLine
 10
346.0
 20
115.0
 30
0.0
 11
410.0
 21
115.0
 31
0.0
  0
LINE
  5
51
330
18
100
AcDbEntity
  8
LEVEL001
  6
Continuous
 62
     3
370
    20
100
AcDbLine
 10
346.0
 20
125.0
 30
0.0
 11
410.0
 21
125.0
 31
0.0
  0
LINE
  5
52
330
18
100
AcDbEntity
  8
LEVEL001
  6
Continuous
 62
     3
370
    20
100
AcDbLine
 10
346.0
 20
135.0
 30
0.0
 11
410.0
 21
135.0
 31
0.0
  0
LINE
  5
53
330
18
100
AcDbEntity
  8
LEVEL001
  6
Continuous
 62
     3
370
    20
100
AcDbLine
 10
380.0
 20
100.0
 30
0.0
 11
380.0
 21
85.0
 31
0.0
  0
LINE
  5
54
330
18
100
AcDbEntity
  8
LEVEL001
  6
Continuous
 62
     3
370
    20
100
AcDbLine
 10
351.0
 20
140.0
 30
0.0
 11
351.0
 21
100.0
 31
0.0
  0
LINE
  5
55
330
18
100
AcDbEntity
  8
LEVEL001
  6
Continuous
 62
     3
370
    20
100
AcDbLine
 10
381.0
 20
140.0
 30
0.0
 11
381.0
 21
100.0
 31
0.0
  0
LINE
  5
56
330
18
100
AcDbEntity
  8
LEVEL001
  6
Continuous
 62
     3
370
    20
100
AcDbLine
 10
386.0
 20
140.0
 30
0.0
 11
386.0
 21
100.0
 31
0.0
  0
LINE
  5
57
330
18
100
AcDbEntity
  8
LEVEL001
  6
Continuous
 62
     3
370
    20
100
AcDbLine
 10
346.0
 20
80.0
 30
0.0
 11
410.0
 21
80.0
 31
0.0
  0
TEXT
  5
58
330
18
100
AcDbEntity
  8
LEVEL001
 62
     3
370
    20
100
AcDbText
 10
347.75
 20
106.0
 30
0.0
 40
3.0
  1
１
 41
0.5
 72
     5
 11
349.25
 21
106.0
 31
0.0
100
AcDbText
  0
TEXT
  5
59
330
18
100
AcDbEntity
  8
LEVEL001
 62
     3
370
    20
100
AcDbText
 10
347.75
 20
111.0
 30
0.0
 40
3.0
  1
２
 41
0.5
 72
     5
 11
349.25
 21
111.0
 31
0.0
100
AcDbText
  0
TEXT
  5
5A
330
18
100
AcDbEntity
  8
LEVEL001
 62
     3
370
    20
100
AcDbText
 10
382.75
 20
111.0
 30
0.0
 40
3.0
  1
１
 41
0.5
 72
     5
 11
384.25
 21
111.0
 31
0.0
100
AcDbText
  0
TEXT
  5
5B
330
18
100
AcDbEntity
  8
LEVEL001
 62
     3
370
    20
100
AcDbText
 10
382.75
 20
106.0
 30
0.0
 40
3.0
  1
１
 41
0.5
 72
     5
 11
384.25
 21
106.0
 31
0.0
100
AcDbText
  0
TEXT
  5
5C
330
18
100
AcDbEntity
  8
LEVEL001
 62
     3
370
    20
100
AcDbText
 10
76.917879853438
 20
29.725688102006
 30
0.0
 40
5.0
  1
ポール姿図
 41
1.08
 72
     5
 11
103.91787985344
 21
29.725688102006
 31
0.0
100
AcDbText
  0
LINE
  5
5D
330
18
100
AcDbEntity
  8
LEVEL001
  6
Continuous
 62
     3
370
    20
100
AcDbLine
 10
75.996904515583
 20
28.925309582147
 30
0.0
 11
104.36356332035
 21
28.925309582147
 31
0.0
  0
TEXT
  5
5E
330
18
100
AcDbEntity
  8
LEVEL001
 62
     3
370
    20
100
AcDbText
 10
81.990228248947
 20
22.341029949165
 30
0.0
 40
5.0
  1
Ｓ＝１：３０
 41
0.58333333333333
 72
     5
 11
99.490228248947
 21
22.341029949165
 31
0.0
100
AcDbText
  0
TEXT
  5
5F
330
18
100
AcDbEntity
  8
LEVEL001
 62
     3
370
    20
100
AcDbText
 10
293.15344933724
 20
46.897608709704
 30
0.0
 40
5.0
  1
Ｓ＝１：５
 41
0.58
 72
     5
 11
307.65344933724
 21
46.897608709704
 31
0.0
100
AcDbText
  0
TEXT
  5
60
330
18
100
AcDbEntity
  8
LEVEL001
 62
     3
370
    20
100
AcDbText
 10
275.90344933724
 20
52.897608709704
 30
0.0
 40
5.0
  1
グランドカバー詳細
 41
1.0888888888889
 72
     5
 11
324.90344933724
 21
52.897608709704
 31
0.0
100
AcDbText
  0
LINE
  5
61
330
18
100
AcDbEntity
  8
LEVEL001
  6
Continuous
 62
     3
370
    20
100
AcDbLine
 10
273.40344933724
 20
51.897608709704
 30
0.0
 11
327.40344933724
 21
51.897608709704
 31
0.0
  0
TEXT
  5
62
330
18
100
AcDbEntity
  8
LEVEL001
 62
     3
370
    20
100
AcDbText
 10
347.0
 20
26.0
 30
0.0
 40
3.0
  1
図面Ｎｏ．
 72
     5
 11
362.0
 21
26.0
 31
0.0
100
AcDbText
  0
TEXT
  5
63
330
18
100
AcDbEntity
  8
LEVEL001
 62
     3
370
    20
100
AcDbText
 10
347.0
 20
36.0
 30
0.0
 40
3.0
  1
品名コード
 72
     5
 11
362.0
 21
36.0
 31
0.0
100
AcDbText
  0
TEXT
  5
64
330
18
100
AcDbEntity
  8
LEVEL001
 62
     3
370
    20
100
AcDbText
 10
347.0
 20
46.0
 30
0.0
 40
3.0
  1
型式
 72
     5
 11
353.0
 21
46.0
 31
0.0
100
AcDbText
  0
TEXT
  5
65
330
18
100
AcDbEntity
  8
LEVEL001
 62
     3
370
    20
100
AcDbText
 10
347.0
 20
56.0
 30
0.0
 40
3.0
  1
品名
 72
     5
 11
353.0
 21
56.0
 31
0.0
100
AcDbText
  0
TEXT
  5
66
330
18
100
AcDbEntity
  8
LEVEL001
 62
     3
370
    20
100
AcDbText
 10
347.0
 20
76.0
 30
0.0
 40
3.0
  1
件名
 72
     5
 11
353.0
 21
76.0
 31
0.0
100
AcDbText
  0
TEXT
  5
67
330
18
100
AcDbEntity
  8
LEVEL001
 62
     3
370
    20
100
AcDbText
 10
346.75
 20
81.0
 30
0.0
 40
3.0
  1
尺度
 72
     5
 11
352.75
 21
81.0
 31
0.0
100
AcDbText
  0
TEXT
  5
68
330
18
100
AcDbEntity
  8
LEVEL001
 62
     3
370
    20
100
AcDbText
 10
346.75
 20
86.0
 30
0.0
 40
3.0
  1
承認
 72
     5
 11
352.75
 21
86.0
 31
0.0
100
AcDbText
  0
TEXT
  5
69
330
18
100
AcDbEntity
  8
LEVEL001
 62
     3
370
    20
100
AcDbText
 10
346.75
 20
91.0
 30
0.0
 40
3.0
  1
審査
 72
     5
 11
352.75
 21
91.0
 31
0.0
100
AcDbText
  0
TEXT
  5
6A
330
18
100
AcDbEntity
  8
LEVEL001
 62
     3
370
    20
100
AcDbText
 10
346.75
 20
96.0
 30
0.0
 40
3.0
  1
作成
 72
     5
 11
352.75
 21
96.0
 31
0.0
100
AcDbText
  0
TEXT
  5
6B
330
18
100
AcDbEntity
  8
LEVEL001
 62
     3
370
    20
100
AcDbText
 10
346.0
 20
101.0
 30
0.0
 40
3.0
  1
品番
 41
0.83333333333333
 72
     5
 11
351.0
 21
101.0
 31
0.0
100
AcDbText
  0
TEXT
  5
6C
330
18
100
AcDbEntity
  8
LEVEL001
 62
     3
370
    20
100
AcDbText
 10
357.5
 20
101.0
 30
0.0
 40
3.0
  1
品　　　名
 72
     5
 11
372.5
 21
101.0
 31
0.0
100
AcDbText
  0
TEXT
  5
6D
330
18
100
AcDbEntity
  8
LEVEL001
 62
     3
370
    20
100
AcDbText
 10
381.0
 20
101.0
 30
0.0
 40
3.0
  1
数量
 41
0.83333333333333
 72
     5
 11
386.0
 21
101.0
 31
0.0
100
AcDbText
  0
TEXT
  5
6E
330
18
100
AcDbEntity
  8
LEVEL001
 62
     3
370
    20
100
AcDbText
 10
389.5
 20
101.0
 30
0.0
 40
3.0
  1
材　　　質
 72
     5
 11
404.5
 21
101.0
 31
0.0
100
AcDbText
  0
TEXT
  5
6F
330
18
100
AcDbEntity
  8
LEVEL001
 62
     3
370
    20
100
AcDbText
 10
352.0
 20
111.0
 30
0.0
 40
3.0
  1
キャップ
 72
     5
 11
364.0
 21
111.0
 31
0.0
100
AcDbText
  0
TEXT
  5
70
330
18
100
AcDbEntity
  8
LEVEL001
 62
     3
370
    20
100
AcDbText
 10
356.6
 20
51.0
 30
0.0
 40
4.0
  1
アルミニウム合金製旗用ポール
 41
0.875
 72
     5
 11
405.6
 21
51.0
 31
0.0
100
AcDbText
  0
LINE
  5
71
330
18
100
AcDbEntity
  8
LEVEL001
  6
DASHDOT
 62
     1
370
    15
100
AcDbLine
 10
298.62913047993
 20
125.11680268642
 30
0.0
 11
298.62913047993
 21
80.459500507555
 31
0.0
  0
LINE
  5
72
330
18
100
AcDbEntity
  8
LEVEL001
  6
Continuous
 62
     3
370
    20
100
AcDbLine
 10
274.36913047993
 20
95.460124820576
 30
0.0
 11
276.06913047993
 21
92.515638447708
 31
0.0
  0
LINE
  5
73
330
18
100
AcDbEntity
  8
LEVEL001
  6
Continuous
 62
     3
370
    20
100
AcDbLine
 10
264.36913047993
 20
95.460124820576
 30
0.0
 11
267.71913047993
 21
89.65775461522
 31
0.0
  0
LINE
  5
74
330
18
100
AcDbEntity
  8
LEVEL001
  6
Continuous
 62
     3
370
    20
100
AcDbLine
 10
266.06913047993
 20
86.799870782731
 30
0.0
 11
271.06913047993
 21
95.460124820576
 31
0.0
  0
LINE
  5
75
330
18
100
AcDbEntity
  8
LEVEL001
  6
Continuous
 62
     3
370
    20
100
AcDbLine
 10
267.66913047993
 20
95.460124820576
 30
0.0
 11
269.36913047993
 21
92.515638447708
 31
0.0
  0
LINE
  5
76
330
18
100
AcDbEntity
  8
LEVEL001
  6
Continuous
 62
     3
370
    20
100
AcDbLine
 10
269.3256253303
 20
86.799870782731
 30
0.0
 11
272.69737790511
 21
92.639917552868
 31
0.0
  0
LINE
  5
77
330
18
100
AcDbEntity
  8
LEVEL001
  6
Continuous
 62
     3
370
    20
100
AcDbLine
 10
272.6256253303
 20
86.799870782731
 30
0.0
 11
274.34737790511
 21
89.78203372038
 31
0.0
  0
LINE
  5
78
330
18
100
AcDbEntity
  8
LEVEL001
  6
Continuous
 62
     3
370
    20
100
AcDbLine
 10
271.06913047993
 20
95.460124820576
 30
0.0
 11
276.11592694304
 21
86.718816931022
 31
0.0
  0
ARC
  5
79
330
18
100
AcDbEntity
  8
LEVEL001
  6
Continuous
 62
     3
370
    20
100
AcDbCircle
 10
313.62913047993
 20
98.660124820575
 30
0.0
 40
7.0
100
AcDbArc
 50
0.0000000000003722
 51
90.0
  0
POINT
  5
7A
330
18
100
AcDbEntity
  8
LEVEL001
 62
     3
100
AcDbPoint
 10
320.62913047993
 20
105.66012482058
 30
0.0
  0
LINE
  5
7B
330
18
100
AcDbEntity
  8
LEVEL001
  6
Continuous
 62
     3
370
    20
100
AcDbLine
 10
320.62913047993
 20
98.660124820575
 30
0.0
 11
320.62913047993
 21
95.460124820576
 31
0.0
  0
ARC
  5
7C
330
18
100
AcDbEntity
  8
LEVEL001
  6
Continuous
 62
     3
370
    20
100
AcDbCircle
 10
313.62913047993
 20
98.660124820575
 30
0.0
 40
7.4
100
AcDbArc
 50
0.0000000000003521
 51
90.000000000001
  0
POINT
  5
7D
330
18
100
AcDbEntity
  8
LEVEL001
 62
     3
100
AcDbPoint
 10
321.02913047993
 20
106.06012482058
 30
0.0
  0
LINE
  5
7E
330
18
100
AcDbEntity
  8
LEVEL001
  6
Continuous
 62
     3
370
    20
100
AcDbLine
 10
321.02913047993
 20
98.660124820575
 30
0.0
 11
321.02913047993
 21
95.460124820576
 31
0.0
  0
ARC
  5
7F
330
18
100
AcDbEntity
  8
LEVEL001
  6
Continuous
 62
     3
370
    20
100
AcDbCircle
 10
283.62913047993
 20
98.660124820575
 30
0.0
 40
7.4
100
AcDbArc
 50
90.000000000001
 51
180.0
  0
LINE
  5
80
330
18
100
AcDbEntity
  8
LEVEL001
  6
Continuous
 62
     3
370
    20
100
AcDbLine
 10
276.22913047993
 20
98.660124820575
 30
0.0
 11
276.22913047993
 21
95.460124820576
 31
0.0
  0
LINE
  5
81
330
18
100
AcDbEntity
  8
LEVEL001
  6
Continuous
 62
     3
370
    20
100
AcDbLine
 10
298.62913047993
 20
106.06012482058
 30
0.0
 11
283.62913047993
 21
106.06012482058
 31
0.0
  0
LINE
  5
82
330
18
100
AcDbEntity
  8
LEVEL001
  6
Continuous
 62
     3
370
    20
100
AcDbLine
 10
298.62913047993
 20
95.460124820576
 30
0.0
 11
276.22913047993
 21
95.460124820576
 31
0.0
  0
LINE
  5
83
330
18
100
AcDbEntity
  8
LEVEL001
  6
Continuous
 62
     3
370
    20
100
AcDbLine
 10
276.22913047993
 20
95.460124820576
 30
0.0
 11
264.36913047993
 21
95.460124820576
 31
0.0
  0
TEXT
  5
84
330
18
100
AcDbEntity
  8
LEVEL001
 62
     3
370
    20
100
AcDbText
 10
352.0
 20
106.0
 30
0.0
 40
3.0
  1
ポール
 72
     5
 11
361.0
 21
106.0
 31
0.0
100
AcDbText
  0
TEXT
  5
85
330
18
100
AcDbEntity
  8
LEVEL001
 62
     3
370
    20
100
AcDbText
 10
262.40344933724
 20
34.738490327353
 30
0.0
 40
4.0
  1
※グランドカバーは、ポール埋込部の
 41
1.1176470588235
 72
     5
 11
338.40344933724
 21
34.738490327353
 31
0.0
100
AcDbText
  0
TEXT
  5
86
330
18
100
AcDbEntity
  8
LEVEL001
 62
     3
370
    20
100
AcDbText
 10
262.40344933724
 20
29.40515699402
 30
0.0
 40
4.0
  1
　化粧用で、別梱包部品です。
 41
1.1160714285714
 72
     5
 11
324.90344933724
 21
29.40515699402
 31
0.0
100
AcDbText
  0
LINE
  5
87
330
18
100
AcDbEntity
  8
LEVEL001
  6
Continuous
 62
     3
370
    20
100
AcDbLine
 10
307.62913047993
 20
122.06012482058
 30
0.0
 11
307.62913047993
 21
83.709156588262
 31
0.0
  0
LINE
  5
88
330
18
100
AcDbEntity
  8
LEVEL001
  6
Continuous
 62
     3
370
    20
100
AcDbLine
 10
307.02913047993
 20
122.37136507492
 30
0.0
 11
307.02913047993
 21
84.020396842602
 31
0.0
  0
LINE
  5
89
330
18
100
AcDbEntity
  8
LEVEL001
  6
Continuous
 62
     3
370
    20
100
AcDbLine
 10
321.02913047993
 20
95.460124820576
 30
0.0
 11
307.62913047993
 21
95.460124820576
 31
0.0
  0
LINE
  5
8A
330
18
100
AcDbEntity
  8
LEVEL001
  6
Continuous
 62
     3
370
    20
100
AcDbLine
 10
307.62913047993
 20
105.66012482058
 30
0.0
 11
313.62913047993
 21
105.66012482058
 31
0.0
  0
LINE
  5
8B
330
18
100
AcDbEntity
  8
LEVEL001
  6
Continuous
 62
     3
370
    20
100
AcDbLine
 10
307.62913047993
 20
106.06012482058
 30
0.0
 11
313.62913047993
 21
106.06012482058
 31
0.0
  0
LINE
  5
8C
330
18
100
AcDbEntity
  8
LEVEL001
  6
Continuous
 62
     3
370
    20
100
AcDbLine
 10
307.92913047993
 20
105.66012482058
 30
0.0
 11
307.92913047993
 21
106.06012482058
 31
0.0
  0
LINE
  5
8D
330
18
100
AcDbEntity
  8
LEVEL001
  6
Continuous
 62
     3
370
    20
100
AcDbLine
 10
289.62913047993
 20
122.06012482058
 30
0.0
 11
289.62913047993
 21
106.06012482058
 31
0.0
  0
LINE
  5
8E
330
18
100
AcDbEntity
  8
LEVEL001
  6
Continuous
 62
     3
370
    20
100
AcDbLine
 10
289.62913047993
 20
95.460124820576
 30
0.0
 11
289.62913047993
 21
83.709156588262
 31
0.0
  0
ARC
  5
8F
330
18
100
AcDbEntity
  8
LEVEL001
  6
Continuous
 62
     3
370
    20
100
AcDbCircle
 10
294.12913047993
 20
114.26589618651
 30
0.0
 40
9.0000000000002
100
AcDbArc
 50
60.000000000002
 51
120.0
  0
ARC
  5
90
330
18
100
AcDbEntity
  8
LEVEL001
  6
Continuous
 62
     3
370
    20
100
AcDbCircle
 10
294.12913047993
 20
129.85435345464
 30
0.0
 40
8.9999999999997
100
AcDbArc
 50
240.0
 51
300.0
  0
ARC
  5
91
330
18
100
AcDbEntity
  8
LEVEL001
  6
Continuous
 62
     3
370
    20
100
AcDbCircle
 10
294.12913047993
 20
114.26589618651
 30
0.0
 40
8.4000000000002
100
AcDbArc
 50
62.625448476079
 51
117.37455152392
  0
ARC
  5
92
330
18
100
AcDbEntity
  8
LEVEL001
  6
Continuous
 62
     3
370
    20
100
AcDbCircle
 10
303.12913047993
 20
114.26589618651
 30
0.0
 40
9.0000000000004
100
AcDbArc
 50
60.00000000000599
 51
120.0
  0
ARC
  5
93
330
18
100
AcDbEntity
  8
LEVEL001
  6
Continuous
 62
     3
370
    20
100
AcDbCircle
 10
303.12913047993
 20
75.914927954201
 30
0.0
 40
9.0000000000004
100
AcDbArc
 50
60.00000000000599
 51
120.0
  0
ARC
  5
94
330
18
100
AcDbEntity
  8
LEVEL001
  6
Continuous
 62
     3
370
    20
100
AcDbCircle
 10
294.12913047993
 20
91.503385222321
 30
0.0
 40
8.9999999999997
100
AcDbArc
 50
240.0
 51
300.0
  0
ARC
  5
95
330
18
100
AcDbEntity
  8
LEVEL001
  6
Continuous
 62
     3
370
    20
100
AcDbCircle
 10
86.170882045936
 20
89.31866468631
 30
0.0
 40
1.2333333333333
100
AcDbArc
 50
90.00000000000202
 51
180.0
  0
LINE
  5
96
330
18
100
AcDbEntity
  8
LEVEL001
  6
Continuous
 62
     3
370
    20
100
AcDbLine
 10
84.937548712602
 20
89.31866468631
 30
0.0
 11
84.937548712602
 21
88.785331352977
 31
0.0
  0
LINE
  5
97
330
18
100
AcDbEntity
  8
LEVEL001
  6
Continuous
 62
     3
370
    20
100
AcDbLine
 10
88.670882045935
 20
90.551998019643
 30
0.0
 11
86.170882045935
 21
90.551998019643
 31
0.0
  0
ARC
  5
98
330
18
100
AcDbEntity
  8
LEVEL001
  6
Continuous
 62
     3
370
    20
100
AcDbCircle
 10
91.170882045936
 20
89.31866468631
 30
0.0
 40
1.2333333333333
100
AcDbArc
 50
0.0
 51
90.000000000004
  0
LINE
  5
99
330
18
100
AcDbEntity
  8
LEVEL001
  6
Continuous
 62
     3
370
    20
100
AcDbLine
 10
92.404215379269
 20
89.31866468631
 30
0.0
 11
92.404215379269
 21
88.785331352977
 31
0.0
  0
LINE
  5
9A
330
18
100
AcDbEntity
  8
LEVEL001
  6
Continuous
 62
     3
370
    20
100
AcDbLine
 10
88.670882045935
 20
90.551998019643
 30
0.0
 11
91.170882045935
 21
90.551998019643
 31
0.0
  0
LINE
  5
9B
330
18
100
AcDbEntity
  8
LEVEL001
  6
Continuous
 62
     3
370
    20
100
AcDbLine
 10
86.587548712602
 20
88.785331352977
 30
0.0
 11
86.587548712602
 21
72.11866468631
 31
0.0
  0
LINE
  5
9C
330
18
100
AcDbEntity
  8
LEVEL001
  6
Continuous
 62
     3
370
    20
100
AcDbLine
 10
90.754215379269
 20
72.11866468631
 30
0.0
 11
90.754215379269
 21
88.785331352977
 31
0.0
  0
LWPOLYLINE
  5
9D
330
18
100
AcDbEntity
  8
LEVEL001
  6
Continuous
 62
     3
370
    20
100
AcDbPolyline
 90
        4
 70
     0
 43
0.0
 10
89.170882045935
 20
72.11866468631
 10
89.170882045935
 20
67.11866468631
 10
88.170882045935
 20
67.11866468631
 10
88.170882045935
 20
72.11866468631
  0
LINE
  5
9E
330
18
100
AcDbEntity
  8
LEVEL001
  6
Continuous
 62
     3
370
    20
100
AcDbLine
 10
86.587548712602
 20
74.833501262312
 30
0.0
 11
82.004215379269
 21
72.187312528526
 31
0.0
  0
LINE
  5
9F
330
18
100
AcDbEntity
  8
LEVEL001
  6
Continuous
 62
     3
370
    20
100
AcDbLine
 10
86.587548712602
 20
74.256150993158
 30
0.0
 11
82.885313828659
 21
72.11866468631
 31
0.0
  0
LINE
  5
A0
330
18
100
AcDbEntity
  8
LEVEL001
  6
Continuous
 62
     3
370
    20
100
AcDbLine
 10
83.045250587807
 20
71.451998019644
 30
0.0
 11
81.670882045935
 21
68.785331352977
 31
0.0
  0
LINE
  5
A1
330
18
100
AcDbEntity
  8
LEVEL001
  6
Continuous
 62
     3
370
    20
100
AcDbLine
 10
82.045250587807
 20
71.451998019644
 30
0.0
 11
82.587127740517
 21
70.563109130755
 31
0.0
  0
LINE
  5
A2
330
18
100
AcDbEntity
  8
LEVEL001
  6
Continuous
 62
     3
370
    20
100
AcDbLine
 10
82.129004893226
 20
69.674220241866
 30
0.0
 11
82.670882045935
 21
68.785331352977
 31
0.0
  0
LINE
  5
A3
330
18
100
AcDbEntity
  8
LEVEL001
  6
Continuous
 62
     3
370
    20
100
AcDbLine
 10
86.045250587807
 20
71.451998019644
 30
0.0
 11
84.670882045935
 21
68.785331352977
 31
0.0
  0
LINE
  5
A4
330
18
100
AcDbEntity
  8
LEVEL001
  6
Continuous
 62
     3
370
    20
100
AcDbLine
 10
85.045250587807
 20
71.451998019644
 30
0.0
 11
85.587127740517
 21
70.563109130755
 31
0.0
  0
LINE
  5
A5
330
18
100
AcDbEntity
  8
LEVEL001
  6
Continuous
 62
     3
370
    20
100
AcDbLine
 10
85.128203070219
 20
69.674220241866
 30
0.0
 11
85.670080222928
 21
68.785331352977
 31
0.0
  0
LINE
  5
A6
330
18
100
AcDbEntity
  8
LEVEL001
  6
Continuous
 62
     3
370
    20
100
AcDbLine
 10
92.0444487648
 20
71.451998019644
 30
0.0
 11
90.670080222928
 21
68.785331352977
 31
0.0
  0
LINE
  5
A7
330
18
100
AcDbEntity
  8
LEVEL001
  6
Continuous
 62
     3
370
    20
100
AcDbLine
 10
91.13804112693
 20
69.674220241866
 30
0.0
 11
91.679918279639
 21
68.785331352977
 31
0.0
  0
LINE
  5
A8
330
18
100
AcDbEntity
  8
LEVEL001
  6
Continuous
 62
     3
370
    20
100
AcDbLine
 10
95.054286821511
 20
71.451998019644
 30
0.0
 11
93.679918279639
 21
68.785331352977
 31
0.0
  0
LINE
  5
A9
330
18
100
AcDbEntity
  8
LEVEL001
  6
Continuous
 62
     3
370
    20
100
AcDbLine
 10
94.143198978508
 20
69.674220241866
 30
0.0
 11
94.685076131217
 21
68.785331352977
 31
0.0
  0
LINE
  5
AA
330
18
100
AcDbEntity
  8
LEVEL001
  6
Continuous
 62
     3
370
    20
100
AcDbLine
 10
94.054286821511
 20
71.451998019644
 30
0.0
 11
94.59616397422
 21
70.563109130755
 31
0.0
  0
LINE
  5
AB
330
18
100
AcDbEntity
  8
LEVEL001
  6
Continuous
 62
     3
370
    20
100
AcDbLine
 10
91.0444487648
 20
71.451998019644
 30
0.0
 11
91.586325917509
 21
70.563109130755
 31
0.0
  0
LINE
  5
AC
330
18
100
AcDbEntity
  8
LEVEL001
  6
Continuous
 62
     3
370
    20
100
AcDbLine
 10
88.170882045935
 20
69.757029618277
 30
0.0
 11
87.670080222928
 21
68.785331352977
 31
0.0
  0
LINE
  5
AD
330
18
100
AcDbEntity
  8
LEVEL001
  6
Continuous
 62
     3
370
    20
100
AcDbLine
 10
88.0444487648
 20
71.451998019644
 30
0.0
 11
88.170882045935
 21
71.244598356777
 31
0.0
  0
LINE
  5
AE
330
18
100
AcDbEntity
  8
LEVEL001
  6
Continuous
 62
     3
370
    20
100
AcDbLine
 10
86.587548712602
 20
73.678800723968
 30
0.0
 11
83.885313828659
 21
72.11866468631
 31
0.0
  0
LWPOLYLINE
  5
AF
330
18
100
AcDbEntity
  8
LEVEL001
  6
Continuous
 62
     3
370
    20
100
AcDbPolyline
 90
        3
 70
     0
 43
0.0
 10
88.670882045935
 20
72.11866468631
 10
90.170882045935
 20
72.11866468631
 10
90.170882045935
 20
88.785331352977
  0
LWPOLYLINE
  5
B0
330
18
100
AcDbEntity
  8
LEVEL001
  6
Continuous
 62
     3
370
    20
100
AcDbPolyline
 90
        3
 70
     0
 43
0.0
 10
88.670882045935
 20
72.11866468631
 10
87.170882045935
 20
72.11866468631
 10
87.170882045935
 20
88.785331352977
  0
TEXT
  5
B1
330
18
100
AcDbEntity
  8
LEVEL001
 62
     3
370
    20
100
AcDbText
 10
387.0
 20
111.0
 30
0.0
 40
3.0
  1
ＡＤＣ５/Ａ１１００－Ｏ
 41
0.63888888888889
 72
     5
 11
410.0
 21
111.0
 31
0.0
100
AcDbText
  0
LINE
  5
B2
330
18
100
AcDbEntity
  8
LEVEL001
  6
Continuous
 62
     3
370
    20
100
AcDbLine
 10
98.064124878222
 20
71.451998019644
 30
0.0
 11
96.68975633635
 21
68.785331352977
 31
0.0
  0
LINE
  5
B3
330
18
100
AcDbEntity
  8
LEVEL001
  6
Continuous
 62
     3
370
    20
100
AcDbLine
 10
97.153037035219
 20
69.674220241866
 30
0.0
 11
97.694914187928
 21
68.785331352977
 31
0.0
  0
LINE
  5
B4
330
18
100
AcDbEntity
  8
LEVEL001
  6
Continuous
 62
     3
370
    20
100
AcDbLine
 10
97.064124878222
 20
71.451998019644
 30
0.0
 11
97.606002030932
 21
70.563109130755
 31
0.0
  0
LINE
  5
B5
330
18
100
AcDbEntity
  8
LEVEL001
  6
Continuous
 62
     3
370
    20
100
AcDbLine
 10
80.045250587807
 20
71.451998019644
 30
0.0
 11
78.670882045935
 21
68.785331352977
 31
0.0
  0
LINE
  5
B6
330
18
100
AcDbEntity
  8
LEVEL001
  6
Continuous
 62
     3
370
    20
100
AcDbLine
 10
79.045250587807
 20
71.451998019644
 30
0.0
 11
79.587127740517
 21
70.563109130755
 31
0.0
  0
LINE
  5
B7
330
18
100
AcDbEntity
  8
LEVEL001
  6
Continuous
 62
     3
370
    20
100
AcDbLine
 10
79.129004893226
 20
69.674220241866
 30
0.0
 11
79.670882045935
 21
68.785331352977
 31
0.0
  0
LINE
  5
B8
330
18
100
AcDbEntity
  8
LEVEL001
  6
Continuous
 62
     3
370
    20
100
AcDbLine
 10
87.170882045935
 20
90.551998019643
 30
0.0
 11
87.170882045935
 21
181.28533135298
 31
0.0
  0
LINE
  5
B9
330
18
100
AcDbEntity
  8
LEVEL001
  6
Continuous
 62
     3
370
    20
100
AcDbLine
 10
90.170882045935
 20
90.551998019643
 30
0.0
 11
90.170882045935
 21
181.28533135298
 31
0.0
  0
LINE
  5
BA
330
18
100
AcDbEntity
  8
LEVEL001
  6
Continuous
 62
     3
370
    20
100
AcDbLine
 10
87.170882045935
 20
181.28533135298
 30
0.0
 11
87.420882045935
 21
213.78533135298
 31
0.0
  0
LINE
  5
BB
330
18
100
AcDbEntity
  8
LEVEL001
  6
Continuous
 62
     3
370
    20
100
AcDbLine
 10
87.420882045935
 20
213.78533135298
 30
0.0
 11
87.420882045935
 21
222.11866468631
 31
0.0
  0
LINE
  5
BC
330
18
100
AcDbEntity
  8
LEVEL001
  6
Continuous
 62
     3
370
    20
100
AcDbLine
 10
90.170882045935
 20
181.28533135298
 30
0.0
 11
89.920882045935
 21
213.78533135298
 31
0.0
  0
LINE
  5
BD
330
18
100
AcDbEntity
  8
LEVEL001
  6
Continuous
 62
     3
370
    20
100
AcDbLine
 10
89.920882045935
 20
213.78533135298
 30
0.0
 11
89.920882045935
 21
222.11866468631
 31
0.0
  0
LINE
  5
BE
330
18
100
AcDbEntity
  8
LEVEL001
  6
DASHDOT
 62
     1
370
    15
100
AcDbLine
 10
88.670882045935
 20
231.56277577216
 30
0.0
 11
88.670882045935
 21
64.070336509138
 31
0.0
  0
LINE
  5
BF
330
18
100
AcDbEntity
  8
LEVEL001
  6
Continuous
 62
     3
370
    20
100
AcDbLine
 10
95.337548712602
 20
88.785331352977
 30
0.0
 11
97.004215379269
 21
85.898580007029
 31
0.0
  0
LINE
  5
C0
330
18
100
AcDbEntity
  8
LEVEL001
  6
Continuous
 62
     3
370
    20
100
AcDbLine
 10
97.004215379269
 20
85.898580007029
 30
0.0
 11
98.670882045936
 21
88.785331352977
 31
0.0
  0
LINE
  5
C1
330
18
100
AcDbEntity
  8
LEVEL001
  6
Continuous
 62
     3
370
    20
100
AcDbLine
 10
96.437548712602
 20
88.785331352977
 30
0.0
 11
97.554215379269
 21
86.851207951192
 31
0.0
  0
LINE
  5
C2
330
18
100
AcDbEntity
  8
LEVEL001
  6
Continuous
 62
     3
370
    20
100
AcDbLine
 10
98.670882045936
 20
88.785331352977
 30
0.0
 11
100.3375487126
 21
85.898580007029
 31
0.0
  0
LINE
  5
C3
330
18
100
AcDbEntity
  8
LEVEL001
  6
Continuous
 62
     3
370
    20
100
AcDbLine
 10
98.089713662723
 20
85.898580007029
 30
0.0
 11
99.213631187663
 21
87.845262263741
 31
0.0
  0
LINE
  5
C4
330
18
100
AcDbEntity
  8
LEVEL001
  6
Continuous
 62
     3
370
    20
100
AcDbLine
 10
99.189713662723
 20
85.898580007029
 30
0.0
 11
99.763631187663
 21
86.892634319578
 31
0.0
  0
LINE
  5
C5
330
18
100
AcDbEntity
  8
LEVEL001
  6
Continuous
 62
     3
370
    20
100
AcDbLine
 10
100.3375487126
 20
85.898580007029
 30
0.0
 11
102.00421537927
 21
88.785331352977
 31
0.0
  0
LINE
  5
C6
330
18
100
AcDbEntity
  8
LEVEL001
  6
Continuous
 62
     3
370
    20
100
AcDbLine
 10
99.770882045936
 20
88.785331352977
 30
0.0
 11
100.8875487126
 21
86.851207951192
 31
0.0
  0
LINE
  5
C7
330
18
100
AcDbEntity
  8
LEVEL001
  6
Continuous
 62
     3
370
    20
100
AcDbLine
 10
102.00421537927
 20
88.785331352977
 30
0.0
 11
103.67088204594
 21
85.898580007029
 31
0.0
  0
LINE
  5
C8
330
18
100
AcDbEntity
  8
LEVEL001
  6
Continuous
 62
     3
370
    20
100
AcDbLine
 10
101.42304699606
 20
85.898580007029
 30
0.0
 11
102.546964521
 21
87.845262263741
 31
0.0
  0
LINE
  5
C9
330
18
100
AcDbEntity
  8
LEVEL001
  6
Continuous
 62
     3
370
    20
100
AcDbLine
 10
102.52304699606
 20
85.898580007029
 30
0.0
 11
103.096964521
 21
86.892634319578
 31
0.0
  0
LINE
  5
CA
330
18
100
AcDbEntity
  8
LEVEL001
  6
Continuous
 62
     3
370
    20
100
AcDbLine
 10
95.85638032939
 20
85.898580007029
 30
0.0
 11
96.430297854329
 21
86.892634319578
 31
0.0
  0
LINE
  5
CB
330
18
100
AcDbEntity
  8
LEVEL001
  6
Continuous
 62
     3
370
    20
100
AcDbLine
 10
95.337548712602
 20
86.905193174505
 30
0.0
 11
95.880297854329
 21
87.845262263741
 31
0.0
  0
LINE
  5
CC
330
18
100
AcDbEntity
  8
LEVEL001
  6
Continuous
 62
     3
370
    20
100
AcDbLine
 10
97.537548712602
 20
88.785331352977
 30
0.0
 11
98.104215379269
 21
87.803835895354
 31
0.0
  0
LINE
  5
CD
330
18
100
AcDbEntity
  8
LEVEL001
  6
Continuous
 62
     3
370
    20
100
AcDbLine
 10
100.87088204594
 20
88.785331352977
 30
0.0
 11
101.4375487126
 21
87.803835895354
 31
0.0
  0
LINE
  5
CE
330
18
100
AcDbEntity
  8
LEVEL001
  6
Continuous
 62
     3
370
    20
100
AcDbLine
 10
103.10421537927
 20
88.785331352977
 30
0.0
 11
104.22088204594
 21
86.851207951192
 31
0.0
  0
LINE
  5
CF
330
18
100
AcDbEntity
  8
LEVEL001
  6
Continuous
 62
     3
370
    20
100
AcDbLine
 10
104.20421537927
 20
88.785331352977
 30
0.0
 11
104.77088204594
 21
87.803835895354
 31
0.0
  0
LINE
  5
D0
330
18
100
AcDbEntity
  8
LEVEL001
  6
Continuous
 62
     3
370
    20
100
AcDbLine
 10
95.337548712602
 20
88.785331352977
 30
0.0
 11
108.70213879752
 21
88.785331352977
 31
0.0
  0
TEXT
  5
D1
330
18
100
AcDbEntity
  8
LEVEL001
 62
     3
370
    20
100
AcDbText
 10
102.50106743391
 20
88.892169914856
 30
0.0
 40
4.0
  1
ＧＬ
 72
     5
 11
110.50106743391
 21
88.892169914856
 31
0.0
100
AcDbText
  0
LINE
  5
D2
330
18
100
AcDbEntity
  8
LEVEL001
  6
Continuous
 62
     3
370
    20
100
AcDbLine
 10
89.170882045935
 20
71.451998019644
 30
0.0
 11
98.670882045935
 21
71.451998019644
 31
0.0
  0
LINE
  5
D3
330
18
100
AcDbEntity
  8
LEVEL001
  6
Continuous
 62
     3
370
    20
100
AcDbLine
 10
80.317136797147
 20
85.898580007029
 30
0.0
 11
81.983803463814
 21
88.785331352977
 31
0.0
  0
LINE
  5
D4
330
18
100
AcDbEntity
  8
LEVEL001
  6
Continuous
 62
     3
370
    20
100
AcDbLine
 10
79.75047013048
 20
88.785331352977
 30
0.0
 11
80.867136797147
 21
86.851207951192
 31
0.0
  0
LINE
  5
D5
330
18
100
AcDbEntity
  8
LEVEL001
  6
Continuous
 62
     3
370
    20
100
AcDbLine
 10
81.402635080601
 20
85.898580007029
 30
0.0
 11
82.004215379269
 21
86.940547649153
 31
0.0
  0
LINE
  5
D6
330
18
100
AcDbEntity
  8
LEVEL001
  6
Continuous
 62
     3
370
    20
100
AcDbLine
 10
80.85047013048
 20
88.785331352977
 30
0.0
 11
81.417136797147
 21
87.803835895354
 31
0.0
  0
LINE
  5
D7
330
18
100
AcDbEntity
  8
LEVEL001
  6
Continuous
 62
     3
370
    20
100
AcDbLine
 10
76.983803463814
 20
85.898580007029
 30
0.0
 11
78.65047013048
 21
88.785331352977
 31
0.0
  0
LINE
  5
D8
330
18
100
AcDbEntity
  8
LEVEL001
  6
Continuous
 62
     3
370
    20
100
AcDbLine
 10
76.417136797147
 20
88.785331352977
 30
0.0
 11
77.533803463814
 21
86.851207951192
 31
0.0
  0
LINE
  5
D9
330
18
100
AcDbEntity
  8
LEVEL001
  6
Continuous
 62
     3
370
    20
100
AcDbLine
 10
78.65047013048
 20
88.785331352977
 30
0.0
 11
80.317136797147
 21
85.898580007029
 31
0.0
  0
LINE
  5
DA
330
18
100
AcDbEntity
  8
LEVEL001
  6
Continuous
 62
     3
370
    20
100
AcDbLine
 10
78.069301747268
 20
85.898580007029
 30
0.0
 11
79.193219272208
 21
87.845262263741
 31
0.0
  0
LINE
  5
DB
330
18
100
AcDbEntity
  8
LEVEL001
  6
Continuous
 62
     3
370
    20
100
AcDbLine
 10
79.169301747268
 20
85.898580007029
 30
0.0
 11
79.743219272208
 21
86.892634319578
 31
0.0
  0
LINE
  5
DC
330
18
100
AcDbEntity
  8
LEVEL001
  6
Continuous
 62
     3
370
    20
100
AcDbLine
 10
77.517136797147
 20
88.785331352977
 30
0.0
 11
78.083803463814
 21
87.803835895354
 31
0.0
  0
LINE
  5
DD
330
18
100
AcDbEntity
  8
LEVEL001
  6
Continuous
 62
     3
370
    20
100
AcDbLine
 10
73.65047013048
 20
85.898580007029
 30
0.0
 11
75.317136797147
 21
88.785331352977
 31
0.0
  0
LINE
  5
DE
330
18
100
AcDbEntity
  8
LEVEL001
  6
Continuous
 62
     3
370
    20
100
AcDbLine
 10
73.083803463814
 20
88.785331352977
 30
0.0
 11
74.20047013048
 21
86.851207951192
 31
0.0
  0
LINE
  5
DF
330
18
100
AcDbEntity
  8
LEVEL001
  6
Continuous
 62
     3
370
    20
100
AcDbLine
 10
75.317136797147
 20
88.785331352977
 30
0.0
 11
76.983803463814
 21
85.898580007029
 31
0.0
  0
LINE
  5
E0
330
18
100
AcDbEntity
  8
LEVEL001
  6
Continuous
 62
     3
370
    20
100
AcDbLine
 10
74.735968413935
 20
85.898580007029
 30
0.0
 11
75.859885938874
 21
87.845262263741
 31
0.0
  0
LINE
  5
E1
330
18
100
AcDbEntity
  8
LEVEL001
  6
Continuous
 62
     3
370
    20
100
AcDbLine
 10
74.183803463814
 20
88.785331352977
 30
0.0
 11
74.75047013048
 21
87.803835895354
 31
0.0
  0
LINE
  5
E2
330
18
100
AcDbEntity
  8
LEVEL001
  6
Continuous
 62
     3
370
    20
100
AcDbLine
 10
75.835968413935
 20
85.898580007029
 30
0.0
 11
76.409885938874
 21
86.892634319578
 31
0.0
  0
LINE
  5
E3
330
18
100
AcDbEntity
  8
LEVEL001
  6
Continuous
 62
     3
370
    20
100
AcDbLine
 10
82.004215379269
 20
88.785331352977
 30
0.0
 11
75.317136797147
 21
88.785331352977
 31
0.0
  0
LINE
  5
E4
330
18
100
AcDbEntity
  8
LEVEL001
  6
Continuous
 62
     3
370
    20
100
AcDbLine
 10
78.670882045935
 20
71.451998019644
 30
0.0
 11
88.170882045935
 21
71.451998019644
 31
0.0
  0
LWPOLYLINE
  5
E5
330
18
100
AcDbEntity
  8
LEVEL001
  6
Continuous
 62
     3
370
    20
100
AcDbPolyline
 90
        4
 70
     0
 43
0.0
 10
82.004215379269
 20
72.11866468631
 10
82.004215379269
 20
88.785331352977
 10
95.337548712602
 20
88.785331352977
 10
95.337548712602
 20
72.11866468631
  0
LWPOLYLINE
  5
E6
330
18
100
AcDbEntity
  8
LEVEL001
  6
Continuous
 62
     3
370
    20
100
AcDbPolyline
 90
        6
 70
     0
 43
0.0
 10
89.170882045935
 20
68.785331352977
 10
98.670882045935
 20
68.785331352977
 10
98.670882045935
 20
72.11866468631
 10
78.670882045936
 20
72.11866468631
 10
78.670882045936
 20
68.785331352977
 10
88.170882045935
 20
68.785331352977
  0
LINE
  5
E7
330
18
100
AcDbEntity
  8
LEVEL001
  6
Continuous
 62
     3
370
    20
100
AcDbLine
 10
82.798428208801
 20
88.785331352977
 30
0.0
 11
82.004215379269
 21
88.326792362053
 31
0.0
  0
LINE
  5
E8
330
18
100
AcDbEntity
  8
LEVEL001
  6
Continuous
 62
     3
370
    20
100
AcDbLine
 10
95.337548712602
 20
87.377705765313
 30
0.0
 11
90.754215379269
 21
84.731517031527
 31
0.0
  0
LINE
  5
E9
330
18
100
AcDbEntity
  8
LEVEL001
  6
Continuous
 62
     3
370
    20
100
AcDbLine
 10
95.337548712602
 20
87.955056034502
 30
0.0
 11
90.754215379269
 21
85.308867300716
 31
0.0
  0
LINE
  5
EA
330
18
100
AcDbEntity
  8
LEVEL001
  6
Continuous
 62
     3
370
    20
100
AcDbLine
 10
95.337548712602
 20
88.532406303656
 30
0.0
 11
90.754215379269
 21
85.88621756987
 31
0.0
  0
LINE
  5
EB
330
18
100
AcDbEntity
  8
LEVEL001
  6
Continuous
 62
     3
370
    20
100
AcDbLine
 10
95.337548712602
 20
79.885316117721
 30
0.0
 11
90.754215379269
 21
77.239127383935
 31
0.0
  0
LINE
  5
EC
330
18
100
AcDbEntity
  8
LEVEL001
  6
Continuous
 62
     3
370
    20
100
AcDbLine
 10
95.337548712602
 20
79.307965848567
 30
0.0
 11
90.754215379269
 21
76.661777114781
 31
0.0
  0
LINE
  5
ED
330
18
100
AcDbEntity
  8
LEVEL001
  6
Continuous
 62
     3
370
    20
100
AcDbLine
 10
95.337548712602
 20
78.730615579378
 30
0.0
 11
90.754215379269
 21
76.084426845592
 31
0.0
  0
LINE
  5
EE
330
18
100
AcDbEntity
  8
LEVEL001
  6
Continuous
 62
     3
370
    20
100
AcDbLine
 10
86.587548712602
 20
82.325890909903
 30
0.0
 11
82.004215379269
 21
79.679702176118
 31
0.0
  0
LINE
  5
EF
330
18
100
AcDbEntity
  8
LEVEL001
  6
Continuous
 62
     3
370
    20
100
AcDbLine
 10
86.587548712602
 20
82.903241179093
 30
0.0
 11
82.004215379269
 21
80.257052445308
 31
0.0
  0
LINE
  5
F0
330
18
100
AcDbEntity
  8
LEVEL001
  6
Continuous
 62
     3
370
    20
100
AcDbLine
 10
86.587548712602
 20
83.480591448247
 30
0.0
 11
82.004215379269
 21
80.834402714461
 31
0.0
  0
LINE
  5
F1
330
18
100
AcDbEntity
  8
LEVEL001
  6
Continuous
 62
     1
370
    15
100
AcDbLine
 10
321.02913047993
 20
93.460124820576
 30
0.0
 11
321.02913047993
 21
70.840393391892
 31
0.0
  0
LINE
  5
F2
330
18
100
AcDbEntity
  8
LEVEL001
  6
Continuous
 62
     1
370
    15
100
AcDbLine
 10
276.22913047993
 20
93.460124820576
 30
0.0
 11
276.22913047993
 21
70.840393391892
 31
0.0
  0
LINE
  5
F3
330
18
100
AcDbEntity
  8
LEVEL001
  6
Continuous
 62
     1
370
    15
100
AcDbLine
 10
321.02913047993
 20
72.840393391892
 30
0.0
 11
298.62913047993
 21
72.840393391892
 31
0.0
  0
LINE
  5
F4
330
18
100
AcDbEntity
  8
LEVEL001
  6
Continuous
 62
     1
370
    15
100
AcDbLine
 10
276.22913047993
 20
72.840393391892
 30
0.0
 11
298.62913047993
 21
72.840393391892
 31
0.0
  0
LINE
  5
F5
330
18
100
AcDbEntity
  8
LEVEL001
  6
Continuous
 62
     1
370
    15
100
AcDbLine
 10
321.02913047993
 20
72.840393391892
 30
0.0
 11
318.02913047993
 21
73.644240969185
 31
0.0
  0
LINE
  5
F6
330
18
100
AcDbEntity
  8
LEVEL001
  6
Continuous
 62
     1
370
    15
100
AcDbLine
 10
321.02913047993
 20
72.840393391892
 30
0.0
 11
318.02913047993
 21
72.036545814599
 31
0.0
  0
LINE
  5
F7
330
18
100
AcDbEntity
  8
LEVEL001
  6
Continuous
 62
     1
370
    15
100
AcDbLine
 10
276.22913047993
 20
72.840393391892
 30
0.0
 11
279.22913047993
 21
72.036545814599
 31
0.0
  0
LINE
  5
F8
330
18
100
AcDbEntity
  8
LEVEL001
  6
Continuous
 62
     1
370
    15
100
AcDbLine
 10
276.22913047993
 20
72.840393391892
 30
0.0
 11
279.22913047993
 21
73.644240969185
 31
0.0
  0
MTEXT
  5
F9
330
18
100
AcDbEntity
  8
LEVEL001
 62
     3
370
    20
100
AcDbMText
 10
298.62913047993
 20
74.554679106178
 30
0.0
 40
4.0
 41
0.0
 71
     8
 72
     1
  1
\A1;(%%c224)
 73
     1
 44
1.0
  0
LINE
  5
FA
330
18
100
AcDbEntity
  8
LEVEL001
  6
Continuous
 62
     1
370
    15
100
AcDbLine
 10
274.16913047993
 20
95.460124820576
 30
0.0
 11
261.11193774146
 21
95.460124820576
 31
0.0
  0
LINE
  5
FB
330
18
100
AcDbEntity
  8
LEVEL001
  6
Continuous
 62
     1
370
    15
100
AcDbLine
 10
281.62913047993
 20
106.06012482058
 30
0.0
 11
261.11193774146
 21
106.06012482058
 31
0.0
  0
LINE
  5
FC
330
18
100
AcDbEntity
  8
LEVEL001
  6
Continuous
 62
     1
370
    15
100
AcDbLine
 10
263.11193774146
 20
95.460124820576
 30
0.0
 11
263.11193774146
 21
100.76012482058
 31
0.0
  0
LINE
  5
FD
330
18
100
AcDbEntity
  8
LEVEL001
  6
Continuous
 62
     1
370
    15
100
AcDbLine
 10
263.11193774146
 20
106.06012482058
 30
0.0
 11
263.11193774146
 21
100.76012482058
 31
0.0
  0
LINE
  5
FE
330
18
100
AcDbEntity
  8
LEVEL001
  6
Continuous
 62
     1
370
    15
100
AcDbLine
 10
263.11193774146
 20
95.460124820576
 30
0.0
 11
263.91578531876
 21
98.460124820576
 31
0.0
  0
LINE
  5
FF
330
18
100
AcDbEntity
  8
LEVEL001
  6
Continuous
 62
     1
370
    15
100
AcDbLine
 10
263.11193774146
 20
95.460124820576
 30
0.0
 11
262.30809016417
 21
98.460124820576
 31
0.0
  0
LINE
  5
100
330
18
100
AcDbEntity
  8
LEVEL001
  6
Continuous
 62
     1
370
    15
100
AcDbLine
 10
263.11193774146
 20
106.06012482058
 30
0.0
 11
262.30809016417
 21
103.06012482058
 31
0.0
  0
LINE
  5
101
330
18
100
AcDbEntity
  8
LEVEL001
  6
Continuous
 62
     1
370
    15
100
AcDbLine
 10
263.11193774146
 20
106.06012482058
 30
0.0
 11
263.91578531876
 21
103.06012482058
 31
0.0
  0
MTEXT
  5
102
330
18
100
AcDbEntity
  8
LEVEL001
 62
     3
370
    20
100
AcDbMText
 10
261.39765202718
 20
100.76012482058
 30
0.0
 40
4.0
 41
0.0
 71
     8
 72
     1
  1
\A1;(53)
 11
0.0
 21
1.0
 31
0.0
 73
     1
 44
1.0
  0
LINE
  5
103
330
18
100
AcDbEntity
  8
LEVEL001
  6
Continuous
 62
     1
370
    15
100
AcDbLine
 10
307.62913047993
 20
124.06012482058
 30
0.0
 11
307.62913047993
 21
132.77754445529
 31
0.0
  0
LINE
  5
104
330
18
100
AcDbEntity
  8
LEVEL001
  6
Continuous
 62
     1
370
    15
100
AcDbLine
 10
289.62913047993
 20
124.06012482058
 30
0.0
 11
289.62913047993
 21
132.77754445529
 31
0.0
  0
LINE
  5
105
330
18
100
AcDbEntity
  8
LEVEL001
  6
Continuous
 62
     1
370
    15
100
AcDbLine
 10
307.62913047993
 20
130.77754445529
 30
0.0
 11
298.62913047993
 21
130.77754445529
 31
0.0
  0
LINE
  5
106
330
18
100
AcDbEntity
  8
LEVEL001
  6
Continuous
 62
     1
370
    15
100
AcDbLine
 10
289.62913047993
 20
130.77754445529
 30
0.0
 11
298.62913047993
 21
130.77754445529
 31
0.0
  0
LINE
  5
107
330
18
100
AcDbEntity
  8
LEVEL001
  6
Continuous
 62
     1
370
    15
100
AcDbLine
 10
307.62913047993
 20
130.77754445529
 30
0.0
 11
304.62913047993
 21
131.58139203259
 31
0.0
  0
LINE
  5
108
330
18
100
AcDbEntity
  8
LEVEL001
  6
Continuous
 62
     1
370
    15
100
AcDbLine
 10
307.62913047993
 20
130.77754445529
 30
0.0
 11
304.62913047993
 21
129.973696878
 31
0.0
  0
LINE
  5
109
330
18
100
AcDbEntity
  8
LEVEL001
  6
Continuous
 62
     1
370
    15
100
AcDbLine
 10
289.62913047993
 20
130.77754445529
 30
0.0
 11
292.62913047993
 21
129.973696878
 31
0.0
  0
LINE
  5
10A
330
18
100
AcDbEntity
  8
LEVEL001
  6
Continuous
 62
     1
370
    15
100
AcDbLine
 10
289.62913047993
 20
130.77754445529
 30
0.0
 11
292.62913047993
 21
131.58139203259
 31
0.0
  0
MTEXT
  5
10B
330
18
100
AcDbEntity
  8
LEVEL001
 62
     3
370
    20
100
AcDbMText
 10
298.62913047993
 20
132.49183016958
 30
0.0
 40
4.0
 41
0.0
 71
     8
 72
     1
  1
\A1;%%c90
 73
     1
 44
1.0
  0
TEXT
  5
10C
330
18
100
AcDbEntity
  8
LEVEL001
 62
     3
370
    20
100
AcDbText
 10
100.94199828099
 20
184.39648348066
 30
0.0
 40
4.0
  1
ｔ３．０
 41
0.875
 72
     5
 11
114.94199828099
 21
184.39648348066
 31
0.0
100
AcDbText
  0
TEXT
  5
10D
330
18
100
AcDbEntity
  8
LEVEL001
 62
     3
370
    20
100
AcDbText
 10
352.0
 20
121.0
 30
0.0
 40
3.0
  1
クリート
 72
     5
 11
364.0
 21
121.0
 31
0.0
100
AcDbText
  0
TEXT
  5
10E
330
18
100
AcDbEntity
  8
LEVEL001
 62
     3
370
    20
100
AcDbText
 10
352.0
 20
126.0
 30
0.0
 40
3.0
  1
グランドカバー
 72
     5
 11
373.0
 21
126.0
 31
0.0
100
AcDbText
  0
TEXT
  5
10F
330
18
100
AcDbEntity
  8
LEVEL001
 62
     3
370
    20
100
AcDbText
 10
382.75
 20
126.0
 30
0.0
 40
3.0
  1
１
 41
0.5
 72
     5
 11
384.25
 21
126.0
 31
0.0
100
AcDbText
  0
TEXT
  5
110
330
18
100
AcDbEntity
  8
LEVEL001
 62
     3
370
    20
100
AcDbText
 10
382.75
 20
121.0
 30
0.0
 40
3.0
  1
１
 41
0.5
 72
     5
 11
384.25
 21
121.0
 31
0.0
100
AcDbText
  0
TEXT
  5
111
330
18
100
AcDbEntity
  8
LEVEL001
 62
     3
370
    20
100
AcDbText
 10
387.0
 20
121.0
 30
0.0
 40
3.0
  1
ＡＤＣ５
 41
0.66666666666667
 72
     5
 11
395.0
 21
121.0
 31
0.0
100
AcDbText
  0
TEXT
  5
112
330
18
100
AcDbEntity
  8
LEVEL001
 62
     3
370
    20
100
AcDbText
 10
387.0
 20
126.0
 30
0.0
 40
3.0
  1
Ａ５０５２Ｐ
 41
0.66666666666667
 72
     5
 11
399.0
 21
126.0
 31
0.0
100
AcDbText
  0
TEXT
  5
113
330
18
100
AcDbEntity
  8
LEVEL001
 62
     3
370
    20
100
AcDbText
 10
347.75
 20
126.0
 30
0.0
 40
3.0
  1
５
 41
0.5
 72
     5
 11
349.25
 21
126.0
 31
0.0
100
AcDbText
  0
TEXT
  5
114
330
18
100
AcDbEntity
  8
LEVEL001
 62
     3
370
    20
100
AcDbText
 10
347.75
 20
121.0
 30
0.0
 40
3.0
  1
４
 41
0.5
 72
     5
 11
349.25
 21
121.0
 31
0.0
100
AcDbText
  0
TEXT
  5
115
330
18
100
AcDbEntity
  8
LEVEL001
 62
     3
370
    20
100
AcDbText
 10
382.75
 20
116.0
 30
0.0
 40
3.0
  1
１
 41
0.5
 72
     5
 11
384.25
 21
116.0
 31
0.0
100
AcDbText
  0
TEXT
  5
116
330
18
100
AcDbEntity
  8
LEVEL001
 62
     3
370
    20
100
AcDbText
 10
347.75
 20
116.0
 30
0.0
 40
3.0
  1
３
 41
0.5
 72
     5
 11
349.25
 21
116.0
 31
0.0
100
AcDbText
  0
TEXT
  5
117
330
18
100
AcDbEntity
  8
LEVEL001
 62
     3
370
    20
100
AcDbText
 10
352.0
 20
116.0
 30
0.0
 40
3.0
  1
滑車
 72
     5
 11
358.0
 21
116.0
 31
0.0
100
AcDbText
  0
TEXT
  5
118
330
18
100
AcDbEntity
  8
LEVEL001
 62
     3
370
    20
100
AcDbText
 10
387.0
 20
116.0
 30
0.0
 40
3.0
  1
ジュラコン
 41
0.66666666666667
 72
     5
 11
397.0
 21
116.0
 31
0.0
100
AcDbText
  0
TEXT
  5
119
330
18
100
AcDbEntity
  8
LEVEL001
 62
     3
370
    20
100
AcDbText
 10
356.6
 20
81.0
 30
0.0
 40
3.0
  1
１：５　１：３０
 72
     5
 11
380.6
 21
81.0
 31
0.0
100
AcDbText
  0
POLYLINE
  5
11A
330
18
100
AcDbEntity
  8
LEVEL001
  6
Continuous
 62
     1
370
    15
100
AcDb2dPolyline
 66
     1
 10
0.0
 20
0.0
 30
0.0
  0
VERTEX
  5
11B
330
11A
100
AcDbEntity
  8
LEVEL001
  6
Continuous
 62
     1
100
AcDbVertex
100
AcDb2dVertex
 10
93.404635520119
 20
84.805277836716
 30
0.0
  0
VERTEX
  5
11C
330
11A
100
AcDbEntity
  8
LEVEL001
  6
Continuous
 62
     1
100
AcDbVertex
100
AcDb2dVertex
 10
105.45776973128
 20
79.162731126717
 30
0.0
  0
VERTEX
  5
11D
330
11A
100
AcDbEntity
  8
LEVEL001
  6
Continuous
 62
     1
100
AcDbVertex
100
AcDb2dVertex
 10
134.92060906648
 20
79.162731126717
 30
0.0
  0
SEQEND
  5
11E
330
11A
100
AcDbEntity
  8
LEVEL001
  6
Continuous
 62
     1
  0
LINE
  5
11F
330
18
100
AcDbEntity
  8
LEVEL001
  6
Continuous
 62
     1
370
    15
100
AcDbLine
 10
93.404635520119
 20
84.805277836716
 30
0.0
 11
95.780833949001
 21
82.805314848534
 31
0.0
  0
LINE
  5
120
330
18
100
AcDbEntity
  8
LEVEL001
  6
Continuous
 62
     1
370
    15
100
AcDbLine
 10
93.404635520119
 20
84.805277836716
 30
0.0
 11
96.462465218054
 21
84.261358296763
 31
0.0
  0
MTEXT
  5
121
102
{ACAD_REACTORS
330
120
102
}
330
18
100
AcDbEntity
  8
LEVEL001
 62
     3
370
    20
100
AcDbMText
 10
106.92060906648
 20
80.576268234926
 30
0.0
 40
4.0
 41
0.0
 71
     7
 72
     1
  1
\A1;基礎コンクリート
 73
     1
 44
1.0
  0
POLYLINE
  5
122
330
18
100
AcDbEntity
  8
LEVEL001
  6
Continuous
 62
     1
370
    15
100
AcDb2dPolyline
 66
     1
 10
0.0
 20
0.0
 30
0.0
  0
VERTEX
  5
123
330
122
100
AcDbEntity
  8
LEVEL001
  6
Continuous
 62
     1
100
AcDbVertex
100
AcDb2dVertex
 10
90.169190205733
 20
78.818137676576
 30
0.0
  0
VERTEX
  5
124
330
122
100
AcDbEntity
  8
LEVEL001
  6
Continuous
 62
     1
100
AcDbVertex
100
AcDb2dVertex
 10
105.78879427503
 20
71.714678892392
 30
0.0
  0
VERTEX
  5
125
330
122
100
AcDbEntity
  8
LEVEL001
  6
Continuous
 62
     1
100
AcDbVertex
100
AcDb2dVertex
 10
130.28879427503
 20
71.714678892392
 30
0.0
  0
SEQEND
  5
126
330
122
100
AcDbEntity
  8
LEVEL001
  6
Continuous
 62
     1
  0
LINE
  5
127
330
18
100
AcDbEntity
  8
LEVEL001
  6
Continuous
 62
     1
370
    15
100
AcDbLine
 10
90.169190205733
 20
78.818137676576
 30
0.0
 11
92.567274165767
 21
76.844469961852
 31
0.0
  0
LINE
  5
128
330
18
100
AcDbEntity
  8
LEVEL001
  6
Continuous
 62
     1
370
    15
100
AcDbLine
 10
90.169190205733
 20
78.818137676576
 30
0.0
 11
93.232825692893
 21
78.307933277013
 31
0.0
  0
MTEXT
  5
129
102
{ACAD_REACTORS
330
128
102
}
330
18
100
AcDbEntity
  8
LEVEL001
 62
     3
370
    20
100
AcDbMText
 10
105.78879427503
 20
73.428964606678
 30
0.0
 40
4.0
 41
0.0
 71
     7
 72
     1
  1
\A1;埋込部黒色塗装
 73
     1
 44
1.0
  0
POLYLINE
  5
12A
330
18
100
AcDbEntity
  8
LEVEL001
  6
Continuous
 62
     1
370
    15
100
AcDb2dPolyline
 66
     1
 10
0.0
 20
0.0
 30
0.0
  0
VERTEX
  5
12B
330
12A
100
AcDbEntity
  8
LEVEL001
  6
Continuous
 62
     1
100
AcDbVertex
100
AcDb2dVertex
 10
89.170882045935
 20
67.11866468631
 30
0.0
  0
VERTEX
  5
12C
330
12A
100
AcDbEntity
  8
LEVEL001
  6
Continuous
 62
     1
100
AcDbVertex
100
AcDb2dVertex
 10
106.41795117782
 20
53.999533963727
 30
0.0
  0
VERTEX
  5
12D
330
12A
100
AcDbEntity
  8
LEVEL001
  6
Continuous
 62
     1
100
AcDbVertex
100
AcDb2dVertex
 10
128.10846604908
 20
53.999533963727
 30
0.0
  0
SEQEND
  5
12E
330
12A
100
AcDbEntity
  8
LEVEL001
  6
Continuous
 62
     1
  0
LINE
  5
12F
330
18
100
AcDbEntity
  8
LEVEL001
  6
Continuous
 62
     1
370
    15
100
AcDbLine
 10
89.170882045935
 20
67.11866468631
 30
0.0
 11
91.071949146514
 21
64.662628284581
 31
0.0
  0
LINE
  5
130
330
18
100
AcDbEntity
  8
LEVEL001
  6
Continuous
 62
     1
370
    15
100
AcDbLine
 10
89.170882045935
 20
67.11866468631
 30
0.0
 11
92.0452726502
 21
65.942208320083
 31
0.0
  0
MTEXT
  5
131
102
{ACAD_REACTORS
330
130
102
}
330
18
100
AcDbEntity
  8
LEVEL001
 62
     3
370
    20
100
AcDbMText
 10
107.10846604908
 20
55.168565260833
 30
0.0
 40
4.0
 41
0.0
 71
     7
 72
     1
  1
\A1;水抜きパイプ
 73
     1
 44
1.0
  0
LINE
  5
132
330
18
100
AcDbEntity
  8
LEVEL001
  6
Continuous
 62
     1
370
    15
100
AcDbLine
 10
86.483116601302
 20
226.02264522454
 30
0.0
 11
78.3247781341
 21
230.20221051683
 31
0.0
  0
CIRCLE
  5
133
330
18
100
AcDbEntity
  8
LEVEL001
  6
Continuous
 62
     1
370
    15
100
AcDbCircle
 10
74.764764768252
 20
232.02602652592
 30
0.0
 40
4.0
  0
LINE
  5
134
330
18
100
AcDbEntity
  8
LEVEL001
  6
Continuous
 62
     1
370
    15
100
AcDbLine
 10
86.483116601302
 20
226.02264522454
 30
0.0
 11
84.179624096999
 21
228.10593426117
 31
0.0
  0
LINE
  5
135
330
18
100
AcDbEntity
  8
LEVEL001
  6
Continuous
 62
     1
370
    15
100
AcDbLine
 10
86.483116601302
 20
226.02264522454
 30
0.0
 11
83.446589056834
 21
226.67508020153
 31
0.0
  0
MTEXT
  5
136
330
18
100
AcDbEntity
  8
LEVEL001
 62
     3
370
    20
100
AcDbMText
 10
71.936337643506
 20
229.19759940117
 30
0.0
 40
5.6568542494924
 41
0.0
 71
     7
 72
     1
  1
\A1;２
 73
     1
 44
1.0
  0
LINE
  5
137
330
18
100
AcDbEntity
  8
LEVEL001
  6
Continuous
 62
     1
370
    15
100
AcDbLine
 10
88.585095608309
 20
182.69954491535
 30
0.0
 11
96.992430317148
 21
191.10687962419
 31
0.0
  0
LINE
  5
138
330
18
100
AcDbEntity
  8
LEVEL001
  6
Continuous
 62
     1
370
    15
100
AcDbLine
 10
91.585095608309
 20
182.69954491535
 30
0.0
 11
99.992430317148
 21
191.10687962419
 31
0.0
  0
LINE
  5
139
330
18
100
AcDbEntity
  8
LEVEL001
  6
Continuous
 62
     1
370
    15
100
AcDbLine
 10
91.828216754774
 20
189.69266606182
 30
0.0
 11
97.078216754774
 21
189.69266606182
 31
0.0
  0
LINE
  5
13A
330
18
100
AcDbEntity
  8
LEVEL001
  6
Continuous
 62
     1
370
    15
100
AcDbLine
 10
115.04993760024
 20
189.69266606182
 30
0.0
 11
97.078216754774
 21
189.69266606182
 31
0.0
  0
LINE
  5
13B
330
18
100
AcDbEntity
  8
LEVEL001
  6
Continuous
 62
     1
370
    15
100
AcDbLine
 10
95.578216754774
 20
189.69266606182
 30
0.0
 11
92.578216754774
 21
190.49651363911
 31
0.0
  0
LINE
  5
13C
330
18
100
AcDbEntity
  8
LEVEL001
  6
Continuous
 62
     1
370
    15
100
AcDbLine
 10
95.578216754774
 20
189.69266606182
 30
0.0
 11
92.578216754774
 21
188.88881848452
 31
0.0
  0
LINE
  5
13D
330
18
100
AcDbEntity
  8
LEVEL001
  6
Continuous
 62
     1
370
    15
100
AcDbLine
 10
98.578216754774
 20
189.69266606182
 30
0.0
 11
101.57821675477
 21
188.88881848452
 31
0.0
  0
LINE
  5
13E
330
18
100
AcDbEntity
  8
LEVEL001
  6
Continuous
 62
     1
370
    15
100
AcDbLine
 10
98.578216754774
 20
189.69266606182
 30
0.0
 11
101.57821675477
 21
190.49651363911
 31
0.0
  0
MTEXT
  5
13F
330
18
100
AcDbEntity
  8
LEVEL001
 62
     3
370
    20
100
AcDbMText
 10
104.54993760024
 20
191.31971222586
 30
0.0
 40
4.0
 41
0.0
 71
     7
 72
     1
  1
\A1;%%c90
 73
     1
 44
1.0
  0
LINE
  5
140
330
18
100
AcDbEntity
  8
LEVEL001
  6
Continuous
 62
     1
370
    15
100
AcDbLine
 10
87.263999436387
 20
193.39059211174
 30
0.0
 11
78.037175411193
 21
199.87644071749
 31
0.0
  0
CIRCLE
  5
141
330
18
100
AcDbEntity
  8
LEVEL001
  6
Continuous
 62
     1
370
    15
100
AcDbCircle
 10
74.764764768252
 20
202.17672952196
 30
0.0
 40
4.0
  0
LINE
  5
142
330
18
100
AcDbEntity
  8
LEVEL001
  6
Continuous
 62
     1
370
    15
100
AcDbLine
 10
87.263999436387
 20
193.39059211174
 30
0.0
 11
85.271961849819
 21
195.7734385569
 31
0.0
  0
LINE
  5
143
330
18
100
AcDbEntity
  8
LEVEL001
  6
Continuous
 62
     1
370
    15
100
AcDbLine
 10
87.263999436387
 20
193.39059211174
 30
0.0
 11
84.347421058545
 21
194.45817887328
 31
0.0
  0
MTEXT
  5
144
330
18
100
AcDbEntity
  8
LEVEL001
 62
     3
370
    20
100
AcDbMText
 10
71.936337643506
 20
199.34830239722
 30
0.0
 40
5.6568542494924
 41
0.0
 71
     7
 72
     1
  1
\A1;１
 73
     1
 44
1.0
  0
LINE
  5
145
330
18
100
AcDbEntity
  8
LEVEL001
  6
Continuous
 62
     1
370
    15
100
AcDbLine
 10
87.420882045935
 20
224.11866468631
 30
0.0
 11
87.420882045935
 21
236.47637803125
 31
0.0
  0
LINE
  5
146
330
18
100
AcDbEntity
  8
LEVEL001
  6
Continuous
 62
     1
370
    15
100
AcDbLine
 10
89.920882045935
 20
224.11866468631
 30
0.0
 11
89.920882045935
 21
236.47637803125
 31
0.0
  0
LINE
  5
147
330
18
100
AcDbEntity
  8
LEVEL001
  6
Continuous
 62
     1
370
    15
100
AcDbLine
 10
83.670882045935
 20
234.47637803125
 30
0.0
 11
88.670882045935
 21
234.47637803125
 31
0.0
  0
LINE
  5
148
330
18
100
AcDbEntity
  8
LEVEL001
  6
Continuous
 62
     1
370
    15
100
AcDbLine
 10
93.670882045935
 20
234.47637803125
 30
0.0
 11
88.670882045935
 21
234.47637803125
 31
0.0
  0
LINE
  5
149
330
18
100
AcDbEntity
  8
LEVEL001
  6
Continuous
 62
     1
370
    15
100
AcDbLine
 10
87.420882045935
 20
234.47637803125
 30
0.0
 11
84.420882045935
 21
235.28022560855
 31
0.0
  0
LINE
  5
14A
330
18
100
AcDbEntity
  8
LEVEL001
  6
Continuous
 62
     1
370
    15
100
AcDbLine
 10
87.420882045935
 20
234.47637803125
 30
0.0
 11
84.420882045935
 21
233.67253045396
 31
0.0
  0
LINE
  5
14B
330
18
100
AcDbEntity
  8
LEVEL001
  6
Continuous
 62
     1
370
    15
100
AcDbLine
 10
89.920882045935
 20
234.47637803125
 30
0.0
 11
92.920882045935
 21
233.67253045396
 31
0.0
  0
LINE
  5
14C
330
18
100
AcDbEntity
  8
LEVEL001
  6
Continuous
 62
     1
370
    15
100
AcDbLine
 10
89.920882045935
 20
234.47637803125
 30
0.0
 11
92.920882045935
 21
235.28022560855
 31
0.0
  0
MTEXT
  5
14D
330
18
100
AcDbEntity
  8
LEVEL001
 62
     3
370
    20
100
AcDbMText
 10
88.670882045935
 20
236.19066374554
 30
0.0
 40
4.0
 41
0.0
 71
     8
 72
     1
  1
\A1;(%%c75)
 73
     1
 44
1.0
  0
LINE
  5
14E
330
18
100
AcDbEntity
  8
LEVEL001
  6
Continuous
 62
     1
370
    15
100
AcDbLine
 10
52.092960288809
 20
88.785331352977
 30
0.0
 11
42.443717921314
 21
88.785331352977
 31
0.0
  0
LINE
  5
14F
330
18
100
AcDbEntity
  8
LEVEL001
  6
Continuous
 62
     1
370
    15
100
AcDbLine
 10
85.420882045935
 20
222.11866468631
 30
0.0
 11
42.443717921314
 21
222.11866468631
 31
0.0
  0
LINE
  5
150
330
18
100
AcDbEntity
  8
LEVEL001
  6
Continuous
 62
     1
370
    15
100
AcDbLine
 10
44.443717921314
 20
88.785331352977
 30
0.0
 11
44.443717921314
 21
155.45199801964
 31
0.0
  0
LINE
  5
151
330
18
100
AcDbEntity
  8
LEVEL001
  6
Continuous
 62
     1
370
    15
100
AcDbLine
 10
44.443717921314
 20
222.11866468631
 30
0.0
 11
44.443717921314
 21
155.45199801964
 31
0.0
  0
LINE
  5
152
330
18
100
AcDbEntity
  8
LEVEL001
  6
Continuous
 62
     1
370
    15
100
AcDbLine
 10
44.443717921314
 20
88.785331352977
 30
0.0
 11
45.247565498607
 21
91.785331352977
 31
0.0
  0
LINE
  5
153
330
18
100
AcDbEntity
  8
LEVEL001
  6
Continuous
 62
     1
370
    15
100
AcDbLine
 10
44.443717921314
 20
88.785331352977
 30
0.0
 11
43.639870344021
 21
91.785331352977
 31
0.0
  0
LINE
  5
154
330
18
100
AcDbEntity
  8
LEVEL001
  6
Continuous
 62
     1
370
    15
100
AcDbLine
 10
44.443717921314
 20
222.11866468631
 30
0.0
 11
43.639870344021
 21
219.11866468631
 31
0.0
  0
LINE
  5
155
330
18
100
AcDbEntity
  8
LEVEL001
  6
Continuous
 62
     1
370
    15
100
AcDbLine
 10
44.443717921314
 20
222.11866468631
 30
0.0
 11
45.247565498607
 21
219.11866468631
 31
0.0
  0
MTEXT
  5
156
330
18
100
AcDbEntity
  8
LEVEL001
 62
     3
370
    20
100
AcDbMText
 10
42.729432207028
 20
155.45199801964
 30
0.0
 40
4.0
 41
0.0
 71
     8
 72
     1
  1
\A1;4000
 11
0.0
 21
1.0
 31
0.0
 73
     1
 44
1.0
  0
LINE
  5
157
330
18
100
AcDbEntity
  8
LEVEL001
  6
Continuous
 62
     1
370
    15
100
AcDbLine
 10
62.085688888395
 20
88.785331352977
 30
0.0
 11
52.092960288809
 21
88.785331352977
 31
0.0
  0
LINE
  5
158
330
18
100
AcDbEntity
  8
LEVEL001
  6
Continuous
 62
     1
370
    15
100
AcDbLine
 10
85.170882045935
 20
181.28533135298
 30
0.0
 11
52.092960288809
 21
181.28533135298
 31
0.0
  0
LINE
  5
159
330
18
100
AcDbEntity
  8
LEVEL001
  6
Continuous
 62
     1
370
    15
100
AcDbLine
 10
54.092960288809
 20
88.785331352977
 30
0.0
 11
54.092960288809
 21
135.03533135298
 31
0.0
  0
LINE
  5
15A
330
18
100
AcDbEntity
  8
LEVEL001
  6
Continuous
 62
     1
370
    15
100
AcDbLine
 10
54.092960288809
 20
181.28533135298
 30
0.0
 11
54.092960288809
 21
135.03533135298
 31
0.0
  0
LINE
  5
15B
330
18
100
AcDbEntity
  8
LEVEL001
  6
Continuous
 62
     1
370
    15
100
AcDbLine
 10
54.092960288809
 20
88.785331352977
 30
0.0
 11
54.896807866102
 21
91.785331352977
 31
0.0
  0
LINE
  5
15C
330
18
100
AcDbEntity
  8
LEVEL001
  6
Continuous
 62
     1
370
    15
100
AcDbLine
 10
54.092960288809
 20
88.785331352977
 30
0.0
 11
53.289112711515
 21
91.785331352977
 31
0.0
  0
LINE
  5
15D
330
18
100
AcDbEntity
  8
LEVEL001
  6
Continuous
 62
     1
370
    15
100
AcDbLine
 10
54.092960288809
 20
181.28533135298
 30
0.0
 11
53.289112711515
 21
178.28533135298
 31
0.0
  0
LINE
  5
15E
330
18
100
AcDbEntity
  8
LEVEL001
  6
Continuous
 62
     1
370
    15
100
AcDbLine
 10
54.092960288809
 20
181.28533135298
 30
0.0
 11
54.896807866102
 21
178.28533135298
 31
0.0
  0
MTEXT
  5
15F
330
18
100
AcDbEntity
  8
LEVEL001
 62
     3
370
    20
100
AcDbMText
 10
52.378674574523
 20
135.03533135298
 30
0.0
 40
4.0
 41
0.0
 71
     8
 72
     1
  1
\A1;(2775)
 11
0.0
 21
1.0
 31
0.0
 73
     1
 44
1.0
  0
LINE
  5
160
330
18
100
AcDbEntity
  8
LEVEL001
  6
Continuous
 62
     1
370
    15
100
AcDbLine
 10
75.57089050188
 20
88.785331352977
 30
0.0
 11
42.443717921314
 21
88.785331352977
 31
0.0
  0
LINE
  5
161
330
18
100
AcDbEntity
  8
LEVEL001
  6
Continuous
 62
     1
370
    15
100
AcDbLine
 10
85.170882045935
 20
72.11866468631
 30
0.0
 11
42.443717921314
 21
72.11866468631
 31
0.0
  0
LINE
  5
162
330
18
100
AcDbEntity
  8
LEVEL001
  6
Continuous
 62
     1
370
    15
100
AcDbLine
 10
44.443717921314
 20
88.785331352977
 30
0.0
 11
44.443717921314
 21
80.451998019643
 31
0.0
  0
LINE
  5
163
330
18
100
AcDbEntity
  8
LEVEL001
  6
Continuous
 62
     1
370
    15
100
AcDbLine
 10
44.443717921314
 20
72.11866468631
 30
0.0
 11
44.443717921314
 21
80.451998019643
 31
0.0
  0
LINE
  5
164
330
18
100
AcDbEntity
  8
LEVEL001
  6
Continuous
 62
     1
370
    15
100
AcDbLine
 10
44.443717921314
 20
88.785331352977
 30
0.0
 11
43.639870344021
 21
85.785331352977
 31
0.0
  0
LINE
  5
165
330
18
100
AcDbEntity
  8
LEVEL001
  6
Continuous
 62
     1
370
    15
100
AcDbLine
 10
44.443717921314
 20
88.785331352977
 30
0.0
 11
45.247565498607
 21
85.785331352977
 31
0.0
  0
LINE
  5
166
330
18
100
AcDbEntity
  8
LEVEL001
  6
Continuous
 62
     1
370
    15
100
AcDbLine
 10
44.443717921314
 20
72.11866468631
 30
0.0
 11
45.247565498607
 21
75.11866468631
 31
0.0
  0
LINE
  5
167
330
18
100
AcDbEntity
  8
LEVEL001
  6
Continuous
 62
     1
370
    15
100
AcDbLine
 10
44.443717921314
 20
72.11866468631
 30
0.0
 11
43.639870344021
 21
75.11866468631
 31
0.0
  0
MTEXT
  5
168
330
18
100
AcDbEntity
  8
LEVEL001
 62
     3
370
    20
100
AcDbMText
 10
42.729432207028
 20
80.451998019643
 30
0.0
 40
4.0
 41
0.0
 71
     8
 72
     1
  1
\A1;500
 11
0.0
 21
1.0
 31
0.0
 73
     1
 44
1.0
  0
LINE
  5
169
330
18
100
AcDbEntity
  8
LEVEL001
  6
Continuous
 62
     1
370
    15
100
AcDbLine
 10
76.670882045936
 20
72.11866468631
 30
0.0
 11
42.443717921314
 21
72.11866468631
 31
0.0
  0
LINE
  5
16A
330
18
100
AcDbEntity
  8
LEVEL001
  6
Continuous
 62
     1
370
    15
100
AcDbLine
 10
76.670882045936
 20
68.785331352977
 30
0.0
 11
42.443717921314
 21
68.785331352977
 31
0.0
  0
LINE
  5
16B
330
18
100
AcDbEntity
  8
LEVEL001
  6
Continuous
 62
     1
370
    15
100
AcDbLine
 10
44.443717921314
 20
75.86866468631
 30
0.0
 11
44.443717921314
 21
70.451998019643
 31
0.0
  0
LINE
  5
16C
330
18
100
AcDbEntity
  8
LEVEL001
  6
Continuous
 62
     1
370
    15
100
AcDbLine
 10
44.443717921314
 20
57.305685171197
 30
0.0
 11
44.443717921314
 21
70.451998019643
 31
0.0
  0
LINE
  5
16D
330
18
100
AcDbEntity
  8
LEVEL001
  6
Continuous
 62
     1
370
    15
100
AcDbLine
 10
44.443717921314
 20
72.11866468631
 30
0.0
 11
45.247565498607
 21
75.11866468631
 31
0.0
  0
LINE
  5
16E
330
18
100
AcDbEntity
  8
LEVEL001
  6
Continuous
 62
     1
370
    15
100
AcDbLine
 10
44.443717921314
 20
72.11866468631
 30
0.0
 11
43.639870344021
 21
75.11866468631
 31
0.0
  0
LINE
  5
16F
330
18
100
AcDbEntity
  8
LEVEL001
  6
Continuous
 62
     1
370
    15
100
AcDbLine
 10
44.443717921314
 20
68.785331352977
 30
0.0
 11
43.639870344021
 21
65.785331352977
 31
0.0
  0
LINE
  5
170
330
18
100
AcDbEntity
  8
LEVEL001
  6
Continuous
 62
     1
370
    15
100
AcDbLine
 10
44.443717921314
 20
68.785331352977
 30
0.0
 11
45.247565498607
 21
65.785331352977
 31
0.0
  0
MTEXT
  5
171
330
18
100
AcDbEntity
  8
LEVEL001
 62
     3
370
    20
100
AcDbMText
 10
42.290677192316
 20
67.805685171197
 30
0.0
 40
4.0
 41
0.0
 71
     9
 72
     1
  1
\A1;100
 11
0.0
 21
1.0
 31
0.0
 73
     1
 44
1.0
  0
POLYLINE
  5
172
330
18
100
AcDbEntity
  8
LEVEL001
  6
Continuous
 62
     1
370
    15
100
AcDb2dPolyline
 66
     1
 10
0.0
 20
0.0
 30
0.0
  0
VERTEX
  5
173
330
172
100
AcDbEntity
  8
LEVEL001
  6
Continuous
 62
     1
100
AcDbVertex
100
AcDb2dVertex
 10
97.693433584881
 20
69.738450882463
 30
0.0
  0
VERTEX
  5
174
330
172
100
AcDbEntity
  8
LEVEL001
  6
Continuous
 62
     1
100
AcDbVertex
100
AcDb2dVertex
 10
104.49042080705
 20
64.705264217058
 30
0.0
  0
VERTEX
  5
175
330
172
100
AcDbEntity
  8
LEVEL001
  6
Continuous
 62
     1
100
AcDbVertex
100
AcDb2dVertex
 10
114.99042080705
 20
64.705264217058
 30
0.0
  0
SEQEND
  5
176
330
172
100
AcDbEntity
  8
LEVEL001
  6
Continuous
 62
     1
  0
LINE
  5
177
330
18
100
AcDbEntity
  8
LEVEL001
  6
Continuous
 62
     1
370
    15
100
AcDbLine
 10
97.693433584881
 20
69.738450882463
 30
0.0
 11
99.626006876997
 21
67.307127909652
 31
0.0
  0
LINE
  5
178
330
18
100
AcDbEntity
  8
LEVEL001
  6
Continuous
 62
     1
370
    15
100
AcDbLine
 10
97.693433584881
 20
69.738450882463
 30
0.0
 11
100.58275263693
 21
68.599150069262
 31
0.0
  0
MTEXT
  5
179
102
{ACAD_REACTORS
330
178
102
}
330
18
100
AcDbEntity
  8
LEVEL001
 62
     3
370
    20
100
AcDbMText
 10
104.49042080705
 20
66.419549931343
 30
0.0
 40
4.0
 41
0.0
 71
     7
 72
     1
  1
\A1;割栗石
 73
     1
 44
1.0
  0
LINE
  5
17A
330
18
100
AcDbEntity
  8
LEVEL001
  6
Continuous
 62
     1
370
    15
100
AcDbLine
 10
82.004215379269
 20
70.11866468631
 30
0.0
 11
82.004215379269
 21
53.405336926285
 31
0.0
  0
LINE
  5
17B
330
18
100
AcDbEntity
  8
LEVEL001
  6
Continuous
 62
     1
370
    15
100
AcDbLine
 10
95.337548712602
 20
70.11866468631
 30
0.0
 11
95.337548712602
 21
53.405336926285
 31
0.0
  0
LINE
  5
17C
330
18
100
AcDbEntity
  8
LEVEL001
  6
Continuous
 62
     1
370
    15
100
AcDbLine
 10
62.852714403031
 20
55.405336926285
 30
0.0
 11
88.670882045936
 21
55.405336926285
 31
0.0
  0
LINE
  5
17D
330
18
100
AcDbEntity
  8
LEVEL001
  6
Continuous
 62
     1
370
    15
100
AcDbLine
 10
95.337548712602
 20
55.405336926285
 30
0.0
 11
88.670882045936
 21
55.405336926285
 31
0.0
  0
LINE
  5
17E
330
18
100
AcDbEntity
  8
LEVEL001
  6
Continuous
 62
     1
370
    15
100
AcDbLine
 10
82.004215379269
 20
55.405336926285
 30
0.0
 11
85.004215379269
 21
54.601489348992
 31
0.0
  0
LINE
  5
17F
330
18
100
AcDbEntity
  8
LEVEL001
  6
Continuous
 62
     1
370
    15
100
AcDbLine
 10
82.004215379269
 20
55.405336926285
 30
0.0
 11
85.004215379269
 21
56.209184503579
 31
0.0
  0
LINE
  5
180
330
18
100
AcDbEntity
  8
LEVEL001
  6
Continuous
 62
     1
370
    15
100
AcDbLine
 10
95.337548712602
 20
55.405336926285
 30
0.0
 11
92.337548712602
 21
56.209184503579
 31
0.0
  0
LINE
  5
181
330
18
100
AcDbEntity
  8
LEVEL001
  6
Continuous
 62
     1
370
    15
100
AcDbLine
 10
95.337548712602
 20
55.405336926285
 30
0.0
 11
92.337548712602
 21
54.601489348992
 31
0.0
  0
MTEXT
  5
182
330
18
100
AcDbEntity
  8
LEVEL001
 62
     3
370
    20
100
AcDbMText
 10
76.852714403031
 20
56.638766926285
 30
0.0
 40
4.0
 41
0.0
 71
     9
 72
     1
  1
\A1;□400
 73
     1
 44
1.0
  0
LINE
  5
183
330
18
100
AcDbEntity
  8
LEVEL001
  6
Continuous
 62
     1
370
    15
100
AcDbLine
 10
78.670882045936
 20
66.785331352977
 30
0.0
 11
78.670882045936
 21
45.727489976927
 31
0.0
  0
LINE
  5
184
330
18
100
AcDbEntity
  8
LEVEL001
  6
Continuous
 62
     1
370
    15
100
AcDbLine
 10
98.670882045935
 20
66.785331352977
 30
0.0
 11
98.670882045935
 21
45.727489976927
 31
0.0
  0
LINE
  5
185
330
18
100
AcDbEntity
  8
LEVEL001
  6
Continuous
 62
     1
370
    15
100
AcDbLine
 10
60.280427523747
 20
47.727489976927
 30
0.0
 11
88.670882045935
 21
47.727489976927
 31
0.0
  0
LINE
  5
186
330
18
100
AcDbEntity
  8
LEVEL001
  6
Continuous
 62
     1
370
    15
100
AcDbLine
 10
98.670882045935
 20
47.727489976927
 30
0.0
 11
88.670882045935
 21
47.727489976927
 31
0.0
  0
LINE
  5
187
330
18
100
AcDbEntity
  8
LEVEL001
  6
Continuous
 62
     1
370
    15
100
AcDbLine
 10
78.670882045936
 20
47.727489976927
 30
0.0
 11
81.670882045936
 21
46.923642399633
 31
0.0
  0
LINE
  5
188
330
18
100
AcDbEntity
  8
LEVEL001
  6
Continuous
 62
     1
370
    15
100
AcDbLine
 10
78.670882045936
 20
47.727489976927
 30
0.0
 11
81.670882045936
 21
48.53133755422
 31
0.0
  0
LINE
  5
189
330
18
100
AcDbEntity
  8
LEVEL001
  6
Continuous
 62
     1
370
    15
100
AcDbLine
 10
98.670882045935
 20
47.727489976927
 30
0.0
 11
95.670882045935
 21
48.53133755422
 31
0.0
  0
LINE
  5
18A
330
18
100
AcDbEntity
  8
LEVEL001
  6
Continuous
 62
     1
370
    15
100
AcDbLine
 10
98.670882045935
 20
47.727489976927
 30
0.0
 11
95.670882045935
 21
46.923642399633
 31
0.0
  0
MTEXT
  5
18B
330
18
100
AcDbEntity
  8
LEVEL001
 62
     3
370
    20
100
AcDbMText
 10
76.030427523747
 20
48.549776856211
 30
0.0
 40
4.0
 41
0.0
 71
     9
 72
     1
  1
\A1; □600
 73
     1
 44
1.0
  0
LINE
  5
18C
330
18
100
AcDbEntity
  8
LEVEL001
  6
Continuous
 62
     1
370
    15
100
AcDbLine
 10
85.533409690248
 20
90.376141512059
 30
0.0
 11
77.70136318867
 21
97.619710878274
 31
0.0
  0
CIRCLE
  5
18D
330
18
100
AcDbEntity
  8
LEVEL001
  6
Continuous
 62
     1
370
    15
100
AcDbCircle
 10
74.764764768252
 20
100.3356618567
 30
0.0
 40
4.0
  0
LINE
  5
18E
330
18
100
AcDbEntity
  8
LEVEL001
  6
Continuous
 62
     1
370
    15
100
AcDbLine
 10
85.533409690248
 20
90.376141512059
 30
0.0
 11
83.876763528447
 21
93.00324912731
 31
0.0
  0
LINE
  5
18F
330
18
100
AcDbEntity
  8
LEVEL001
  6
Continuous
 62
     1
370
    15
100
AcDbLine
 10
85.533409690248
 20
90.376141512059
 30
0.0
 11
82.785158221421
 21
91.822960364442
 31
0.0
  0
MTEXT
  5
190
330
18
100
AcDbEntity
  8
LEVEL001
 62
     3
370
    20
100
AcDbMText
 10
71.936337643506
 20
97.507234731951
 30
0.0
 40
5.6568542494924
 41
0.0
 71
     7
 72
     1
  1
\A1;５
 73
     1
 44
1.0
  0
TEXT
  5
191
330
18
100
AcDbEntity
  8
LEVEL001
 62
     3
370
    20
100
AcDbText
 10
356.6
 20
41.0
 30
0.0
 40
4.0
  1
４ＦＰ－Ｕｚｘ
 72
     5
 11
384.6
 21
41.0
 31
0.0
100
AcDbText
  0
TEXT
  5
192
330
18
100
AcDbEntity
  8
LEVEL001
 62
     3
370
    20
100
AcDbText
 10
356.6
 20
21.109792452098
 30
0.0
 40
4.0
  1
ＦＰ０４０Ｕｚｘ
 72
     5
 11
388.6
 21
21.109792452098
 31
0.0
100
AcDbText
  0
TEXT
  5
193
330
18
100
AcDbEntity
  8
LEVEL001
 62
     3
370
    20
100
AcDbText
 10
354.0
 20
12.0
 30
0.0
 40
6.0
  1
株式会社ＳＤＡＴ
 72
     5
 11
402.0
 21
12.0
 31
0.0
100
AcDbText
  0
TEXT
  5
194
330
18
100
AcDbEntity
  8
LEVEL001
 62
     3
370
    20
100
AcDbText
 10
387.0
 20
106.0
 30
0.0
 40
3.0
  1
Ａ６０６３－Ｔ６
 41
0.66666666666667
 72
     5
 11
403.0
 21
106.0
 31
0.0
100
AcDbText
  0
LINE
  5
195
330
18
100
AcDbEntity
  8
LEVEL001
  6
Continuous
 62
     3
370
    20
100
AcDbLine
 10
178.71160515585
 20
34.975755375835
 30
0.0
 11
220.71160515585
 21
34.975755375835
 31
0.0
  0
LINE
  5
196
330
18
100
AcDbEntity
  8
LEVEL001
  6
DASHDOT
 62
     1
370
    15
100
AcDbLine
 10
199.33224124035
 20
116.98778895
 30
0.0
 11
199.33224124035
 21
48.457872577438
 31
0.0
  0
LINE
  5
197
330
18
100
AcDbEntity
  8
LEVEL001
  6
Continuous
 62
     3
370
    20
100
AcDbLine
 10
208.33224124035
 20
113.00945721815
 30
0.0
 11
208.33224124035
 21
53.009457218151
 31
0.0
  0
LINE
  5
198
330
18
100
AcDbEntity
  8
LEVEL001
  6
Continuous
 62
     3
370
    20
100
AcDbLine
 10
190.33224124035
 20
113.00945721815
 30
0.0
 11
190.33224124035
 21
53.009457218151
 31
0.0
  0
ARC
  5
199
330
18
100
AcDbEntity
  8
LEVEL001
  6
Continuous
 62
     3
370
    20
100
AcDbCircle
 10
203.83224124035
 20
105.21522858409
 30
0.0
 40
9.0000000000004
100
AcDbArc
 50
60.00000000000599
 51
120.0
  0
ARC
  5
19A
330
18
100
AcDbEntity
  8
LEVEL001
  6
Continuous
 62
     3
370
    20
100
AcDbCircle
 10
194.83224124035
 20
105.21522858409
 30
0.0
 40
9.0000000000002
100
AcDbArc
 50
60.00000000000299
 51
120.0
  0
ARC
  5
19B
330
18
100
AcDbEntity
  8
LEVEL001
  6
Continuous
 62
     3
370
    20
100
AcDbCircle
 10
194.83224124035
 20
120.80368585221
 30
0.0
 40
8.9999999999997
100
AcDbArc
 50
240.0
 51
300.0
  0
ARC
  5
19C
330
18
100
AcDbEntity
  8
LEVEL001
  6
Continuous
 62
     3
370
    20
100
AcDbCircle
 10
194.83224124035
 20
105.21522858409
 30
0.0
 40
8.4000000000002
100
AcDbArc
 50
62.625448476079
 51
117.37455152392
  0
ARC
  5
19D
330
18
100
AcDbEntity
  8
LEVEL001
  6
Continuous
 62
     3
370
    20
100
AcDbCircle
 10
194.83224124035
 20
60.80368585221
 30
0.0
 40
8.9999999999997
100
AcDbArc
 50
240.0
 51
300.0
  0
ARC
  5
19E
330
18
100
AcDbEntity
  8
LEVEL001
  6
Continuous
 62
     3
370
    20
100
AcDbCircle
 10
203.83224124035
 20
45.21522858409
 30
0.0
 40
9.0000000000004
100
AcDbArc
 50
60.00000000000599
 51
120.0
  0
ARC
  5
19F
330
18
100
AcDbEntity
  8
LEVEL001
  6
Continuous
 62
     3
370
    20
100
AcDbCircle
 10
203.83224124035
 20
60.803685852211
 30
0.0
 40
9.0000000000004
100
AcDbArc
 50
240.0
 51
299.99999999999
  0
ARC
  5
1A0
330
18
100
AcDbEntity
  8
LEVEL001
  6
Continuous
 62
     3
370
    20
100
AcDbCircle
 10
203.83224124035
 20
60.803685852211
 30
0.0
 40
8.4000000000004
100
AcDbArc
 50
242.62544847606
 51
297.37455152394
  0
LINE
  5
1A1
330
18
100
AcDbEntity
  8
LEVEL001
  6
DASHDOT
 62
     1
370
    15
100
AcDbLine
 10
179.25179764553
 20
83.009457218151
 30
0.0
 11
210.24746495864
 21
83.009457218151
 31
0.0
  0
LWPOLYLINE
  5
1A2
330
18
100
AcDbEntity
  8
LEVEL001
  6
Continuous
 62
     3
370
    20
100
AcDbPolyline
 90
        4
 70
     1
 43
0.0
 10
191.93224124035
 20
205.57115062537
 10
191.93224124035
 20
203.57115062537
 10
206.73224124035
 20
203.57115062537
 10
206.73224124035
 20
205.57115062537
  0
LINE
  5
1A3
330
18
100
AcDbEntity
  8
LEVEL001
  6
DOT
 62
     1
370
    15
100
AcDbLine
 10
192.58224124035
 20
197.77115062537
 30
0.0
 11
206.08224124035
 21
197.77115062537
 31
0.0
  0
LINE
  5
1A4
330
18
100
AcDbEntity
  8
LEVEL001
  6
DOT
 62
     1
370
    15
100
AcDbLine
 10
206.08224124035
 20
203.57115062537
 30
0.0
 11
206.08224124035
 21
197.77115062537
 31
0.0
  0
LINE
  5
1A5
330
18
100
AcDbEntity
  8
LEVEL001
  6
DOT
 62
     1
370
    15
100
AcDbLine
 10
192.58224124035
 20
203.57115062537
 30
0.0
 11
192.58224124035
 21
197.77115062537
 31
0.0
  0
LINE
  5
1A6
330
18
100
AcDbEntity
  8
LEVEL001
  6
DASHDOT
 62
     1
370
    15
100
AcDbLine
 10
187.93224124035
 20
221.39658483111
 30
0.0
 11
187.93224124035
 21
218.54571641962
 31
0.0
  0
LINE
  5
1A7
330
18
100
AcDbEntity
  8
LEVEL001
  6
DASHDOT
 62
     1
370
    15
100
AcDbLine
 10
189.39592578386
 20
219.97115062537
 30
0.0
 11
186.46855669683
 21
219.97115062537
 31
0.0
  0
LINE
  5
1A8
330
18
100
AcDbEntity
  8
LEVEL001
  6
DOT
 62
     1
370
    15
100
AcDbLine
 10
186.73224124035
 20
213.17115062537
 30
0.0
 11
193.73224124035
 21
213.17115062537
 31
0.0
  0
ARC
  5
1A9
330
18
100
AcDbEntity
  8
LEVEL001
  6
DOT
 62
     1
370
    15
100
AcDbCircle
 10
193.73224124035
 20
212.17115062537
 30
0.0
 40
1.0
100
AcDbArc
 50
0.0
 51
90.0
  0
LINE
  5
1AA
330
18
100
AcDbEntity
  8
LEVEL001
  6
DOT
 62
     1
370
    15
100
AcDbLine
 10
203.93224124035
 20
207.17115062537
 30
0.0
 11
194.73224124035
 21
207.17115062537
 31
0.0
  0
LINE
  5
1AB
330
18
100
AcDbEntity
  8
LEVEL001
  6
DOT
 62
     1
370
    15
100
AcDbLine
 10
194.73224124035
 20
212.17115062537
 30
0.0
 11
194.73224124035
 21
206.57115062537
 31
0.0
  0
LINE
  5
1AC
330
18
100
AcDbEntity
  8
LEVEL001
  6
DOT
 62
     1
370
    15
100
AcDbLine
 10
195.83224124035
 20
207.17115062537
 30
0.0
 11
195.83224124035
 21
206.57115062537
 31
0.0
  0
LINE
  5
1AD
330
18
100
AcDbEntity
  8
LEVEL001
  6
DOT
 62
     1
370
    15
100
AcDbLine
 10
196.83224124035
 20
207.17115062537
 30
0.0
 11
196.83224124035
 21
206.57115062537
 31
0.0
  0
LINE
  5
1AE
330
18
100
AcDbEntity
  8
LEVEL001
  6
DOT
 62
     1
370
    15
100
AcDbLine
 10
201.83224124035
 20
207.17115062537
 30
0.0
 11
201.83224124035
 21
206.57115062537
 31
0.0
  0
LINE
  5
1AF
330
18
100
AcDbEntity
  8
LEVEL001
  6
DOT
 62
     1
370
    15
100
AcDbLine
 10
202.83224124035
 20
207.17115062537
 30
0.0
 11
202.83224124035
 21
206.57115062537
 31
0.0
  0
LINE
  5
1B0
330
18
100
AcDbEntity
  8
LEVEL001
  6
DOT
 62
     1
370
    15
100
AcDbLine
 10
203.93224124035
 20
224.57115062537
 30
0.0
 11
203.93224124035
 21
206.57115062537
 31
0.0
  0
LINE
  5
1B1
330
18
100
AcDbEntity
  8
LEVEL001
  6
DOT
 62
     1
370
    15
100
AcDbLine
 10
194.73224124035
 20
206.57115062537
 30
0.0
 11
203.93224124035
 21
206.57115062537
 31
0.0
  0
LINE
  5
1B2
330
18
100
AcDbEntity
  8
LEVEL001
  6
DOT
 62
     1
370
    15
100
AcDbLine
 10
203.93224124035
 20
224.57115062537
 30
0.0
 11
186.13224124035
 21
224.57115062537
 31
0.0
  0
LINE
  5
1B3
330
18
100
AcDbEntity
  8
LEVEL001
  6
DOT
 62
     1
370
    15
100
AcDbLine
 10
203.93224124035
 20
223.97115062537
 30
0.0
 11
186.13224124035
 21
223.97115062537
 31
0.0
  0
LINE
  5
1B4
330
18
100
AcDbEntity
  8
LEVEL001
  6
DOT
 62
     1
370
    15
100
AcDbLine
 10
197.83224124035
 20
223.97115062537
 30
0.0
 11
197.83224124035
 21
224.57115062537
 31
0.0
  0
LINE
  5
1B5
330
18
100
AcDbEntity
  8
LEVEL001
  6
DOT
 62
     1
370
    15
100
AcDbLine
 10
200.83224124035
 20
224.57115062537
 30
0.0
 11
200.83224124035
 21
223.97115062537
 31
0.0
  0
ARC
  5
1B6
330
18
100
AcDbEntity
  8
LEVEL001
  6
DOT
 62
     1
370
    15
100
AcDbCircle
 10
186.73224124035
 20
213.77115062537
 30
0.0
 40
0.6
100
AcDbArc
 50
180.0
 51
269.99999999999
  0
LINE
  5
1B7
330
18
100
AcDbEntity
  8
LEVEL001
  6
DOT
 62
     1
370
    15
100
AcDbLine
 10
186.13224124035
 20
213.77115062537
 30
0.0
 11
186.13224124035
 21
216.77099486863
 31
0.0
  0
CIRCLE
  5
1B8
330
18
100
AcDbEntity
  8
LEVEL001
  6
DOT
 62
     1
370
    15
100
AcDbCircle
 10
187.93224124035
 20
219.97115062537
 30
0.0
 40
0.62
  0
CIRCLE
  5
1B9
330
18
100
AcDbEntity
  8
LEVEL001
  6
DOT
 62
     1
370
    15
100
AcDbCircle
 10
190.33224124035
 20
221.75115062537
 30
0.0
 40
0.62
  0
CIRCLE
  5
1BA
330
18
100
AcDbEntity
  8
LEVEL001
  6
DOT
 62
     1
370
    15
100
AcDbCircle
 10
198.13224124035
 20
221.75115062537
 30
0.0
 40
0.62
  0
LINE
  5
1BB
330
18
100
AcDbEntity
  8
LEVEL001
  6
DOT
 62
     1
370
    15
100
AcDbLine
 10
186.13224124035
 20
224.57115062537
 30
0.0
 11
186.13224124035
 21
216.77099486863
 31
0.0
  0
CIRCLE
  5
1BC
330
18
100
AcDbEntity
  8
LEVEL001
  6
DOT
 62
     1
370
    15
100
AcDbCircle
 10
187.93224124035
 20
219.97115062537
 30
0.0
 40
1.75
  0
LWPOLYLINE
  5
1BD
330
18
100
AcDbEntity
  8
LEVEL001
  6
Continuous
 62
     3
370
    20
100
AcDbPolyline
 90
        4
 70
     0
 43
0.0
 10
206.83224124035
 20
173.57115062537
 10
206.83224124035
 20
203.57115062537
 10
191.83224124035
 20
203.57115062537
 10
191.83224124035
 20
173.57115062537
  0
ARC
  5
1BE
330
18
100
AcDbEntity
  8
LEVEL001
  6
Continuous
 62
     3
370
    20
100
AcDbCircle
 10
195.58224124035
 20
180.06634115375
 30
0.0
 40
7.5
100
AcDbArc
 50
240.0
 51
299.99999999999
  0
ARC
  5
1BF
330
18
100
AcDbEntity
  8
LEVEL001
  6
Continuous
 62
     3
370
    20
100
AcDbCircle
 10
203.08224124035
 20
180.06634115375
 30
0.0
 40
7.5
100
AcDbArc
 50
239.99999999999
 51
299.99999999999
  0
ARC
  5
1C0
330
18
100
AcDbEntity
  8
LEVEL001
  6
Continuous
 62
     3
370
    20
100
AcDbCircle
 10
203.08224124034
 20
167.07596009698
 30
0.0
 40
7.5
100
AcDbArc
 50
59.999999999995
 51
120.0
  0
LINE
  5
1C1
330
18
100
AcDbEntity
  8
LEVEL001
  6
DASHDOT
 62
     1
370
    15
100
AcDbLine
 10
199.33224124035
 20
235.16032246769
 30
0.0
 11
199.33224124035
 21
168.57115062537
 31
0.0
  0
LINE
  5
1C2
330
18
100
AcDbEntity
  8
LEVEL001
  6
DOT
 62
     2
370
    20
100
AcDbLine
 10
189.68224124035
 20
219.97115062537
 30
0.0
 11
189.68224124035
 21
205.973460698
 31
0.0
  0
LINE
  5
1C3
330
18
100
AcDbEntity
  8
LEVEL001
  6
DOT
 62
     2
370
    20
100
AcDbLine
 10
191.28224124035
 20
219.97115062537
 30
0.0
 11
191.28224124035
 21
205.64027973127
 31
0.0
  0
LINE
  5
1C4
330
18
100
AcDbEntity
  8
LEVEL001
  6
DOT
 62
     2
370
    20
100
AcDbLine
 10
184.58224124035
 20
219.97115062537
 30
0.0
 11
184.58224124035
 21
209.64507606923
 31
0.0
  0
LINE
  5
1C5
330
18
100
AcDbEntity
  8
LEVEL001
  6
DOT
 62
     2
370
    20
100
AcDbLine
 10
186.18224124035
 20
219.97115062537
 30
0.0
 11
186.18224124035
 21
207.88434748544
 31
0.0
  0
ARC
  5
1C6
330
18
100
AcDbEntity
  8
LEVEL001
  6
DOT
 62
     2
370
    20
100
AcDbCircle
 10
187.93224124035
 20
219.97115062537
 30
0.0
 40
1.7500000000001
100
AcDbArc
 50
0.0
 51
180.0
  0
ARC
  5
1C7
330
18
100
AcDbEntity
  8
LEVEL001
  6
DOT
 62
     2
370
    20
100
AcDbCircle
 10
187.93224124035
 20
219.97115062537
 30
0.0
 40
3.3500000000001
100
AcDbArc
 50
0.0
 51
180.0
  0
LINE
  5
1C8
330
18
100
AcDbEntity
  8
LEVEL001
  6
Continuous
 62
     3
370
    20
100
AcDbLine
 10
189.68224124035
 20
205.973460698
 30
0.0
 11
189.68224124035
 21
192.07115062537
 31
0.0
  0
LINE
  5
1C9
330
18
100
AcDbEntity
  8
LEVEL001
  6
Continuous
 62
     3
370
    20
100
AcDbLine
 10
191.28224124035
 20
205.64027973127
 30
0.0
 11
191.28224124035
 21
192.07115062537
 31
0.0
  0
LINE
  5
1CA
330
18
100
AcDbEntity
  8
LEVEL001
  6
Continuous
 62
     3
370
    20
100
AcDbLine
 10
184.58224124035
 20
209.64507606923
 30
0.0
 11
184.58224124035
 21
192.07115062537
 31
0.0
  0
LINE
  5
1CB
330
18
100
AcDbEntity
  8
LEVEL001
  6
Continuous
 62
     3
370
    20
100
AcDbLine
 10
186.18224124035
 20
207.88434748544
 30
0.0
 11
186.18224124035
 21
192.07115062537
 31
0.0
  0
ARC
  5
1CC
330
18
100
AcDbEntity
  8
LEVEL001
  6
Continuous
 62
     3
370
    20
100
AcDbCircle
 10
187.93224124034
 20
176.92115062537
 30
0.0
 40
1.7500000000001
100
AcDbArc
 50
179.99999999999
 51
0.0
  0
ARC
  5
1CD
330
18
100
AcDbEntity
  8
LEVEL001
  6
Continuous
 62
     3
370
    20
100
AcDbCircle
 10
187.93224124034
 20
176.92115062536
 30
0.0
 40
3.3500000000001
100
AcDbArc
 50
179.99999999999
 51
0.0
  0
LINE
  5
1CE
330
18
100
AcDbEntity
  8
LEVEL001
  6
Continuous
 62
     3
370
    20
100
AcDbLine
 10
189.68224124034
 20
176.92115062536
 30
0.0
 11
189.68224124034
 21
190.07115062537
 31
0.0
  0
LINE
  5
1CF
330
18
100
AcDbEntity
  8
LEVEL001
  6
Continuous
 62
     3
370
    20
100
AcDbLine
 10
191.28224124034
 20
176.92115062536
 30
0.0
 11
191.28224124034
 21
190.07115062537
 31
0.0
  0
LINE
  5
1D0
330
18
100
AcDbEntity
  8
LEVEL001
  6
Continuous
 62
     3
370
    20
100
AcDbLine
 10
184.58224124034
 20
176.92115062537
 30
0.0
 11
184.58224124034
 21
190.07115062537
 31
0.0
  0
LINE
  5
1D1
330
18
100
AcDbEntity
  8
LEVEL001
  6
Continuous
 62
     3
370
    20
100
AcDbLine
 10
186.18224124034
 20
176.92115062536
 30
0.0
 11
186.18224124034
 21
190.07115062537
 31
0.0
  0
ARC
  5
1D2
330
18
100
AcDbEntity
  8
LEVEL001
  6
Continuous
 62
     3
370
    20
100
AcDbCircle
 10
185.78224124034
 20
189.37833030234
 30
0.0
 40
0.79999999999659
100
AcDbArc
 50
59.99999999999901
 51
120.0
  0
ARC
  5
1D3
330
18
100
AcDbEntity
  8
LEVEL001
  6
Continuous
 62
     3
370
    20
100
AcDbCircle
 10
184.98224124034
 20
189.37833030234
 30
0.0
 40
0.8000000000035
100
AcDbArc
 50
59.999999999996
 51
119.99999999999
  0
ARC
  5
1D4
330
18
100
AcDbEntity
  8
LEVEL001
  6
Continuous
 62
     3
370
    20
100
AcDbCircle
 10
184.98224124034
 20
190.7639709484
 30
0.0
 40
0.8000000000035
100
AcDbArc
 50
239.99999999999
 51
299.99999999999
  0
ARC
  5
1D5
330
18
100
AcDbEntity
  8
LEVEL001
  6
Continuous
 62
     3
370
    20
100
AcDbCircle
 10
184.98224124035
 20
192.7639709484
 30
0.0
 40
0.8
100
AcDbArc
 50
239.99999999999
 51
299.99999999999
  0
ARC
  5
1D6
330
18
100
AcDbEntity
  8
LEVEL001
  6
Continuous
 62
     3
370
    20
100
AcDbCircle
 10
185.78224124035
 20
192.7639709484
 30
0.0
 40
0.80000000000009
100
AcDbArc
 50
239.99999999999
 51
299.99999999999
  0
ARC
  5
1D7
330
18
100
AcDbEntity
  8
LEVEL001
  6
Continuous
 62
     3
370
    20
100
AcDbCircle
 10
185.78224124035
 20
191.37833030234
 30
0.0
 40
0.80000000000009
100
AcDbArc
 50
59.999999999993
 51
120.0
  0
ARC
  5
1D8
330
18
100
AcDbEntity
  8
LEVEL001
  6
Continuous
 62
     3
370
    20
100
AcDbCircle
 10
190.88224124034
 20
189.37833030234
 30
0.0
 40
0.79999999999659
100
AcDbArc
 50
59.99999999999901
 51
120.0
  0
ARC
  5
1D9
330
18
100
AcDbEntity
  8
LEVEL001
  6
Continuous
 62
     3
370
    20
100
AcDbCircle
 10
190.08224124034
 20
189.37833030234
 30
0.0
 40
0.8000000000035
100
AcDbArc
 50
59.999999999987
 51
120.0
  0
ARC
  5
1DA
330
18
100
AcDbEntity
  8
LEVEL001
  6
Continuous
 62
     3
370
    20
100
AcDbCircle
 10
190.08224124034
 20
190.7639709484
 30
0.0
 40
0.8000000000035
100
AcDbArc
 50
239.99999999999
 51
299.99999999999
  0
ARC
  5
1DB
330
18
100
AcDbEntity
  8
LEVEL001
  6
Continuous
 62
     3
370
    20
100
AcDbCircle
 10
190.08224124035
 20
192.7639709484
 30
0.0
 40
0.8
100
AcDbArc
 50
239.99999999999
 51
299.99999999999
  0
ARC
  5
1DC
330
18
100
AcDbEntity
  8
LEVEL001
  6
Continuous
 62
     3
370
    20
100
AcDbCircle
 10
190.88224124035
 20
192.7639709484
 30
0.0
 40
0.80000000000009
100
AcDbArc
 50
239.99999999999
 51
299.99999999999
  0
ARC
  5
1DD
330
18
100
AcDbEntity
  8
LEVEL001
  6
Continuous
 62
     3
370
    20
100
AcDbCircle
 10
190.88224124035
 20
191.37833030234
 30
0.0
 40
0.80000000000009
100
AcDbArc
 50
59.999999999993
 51
120.0
  0
LINE
  5
1DE
330
18
100
AcDbEntity
  8
LEVEL001
  6
DASHDOT
 62
     1
370
    15
100
AcDbLine
 10
207.89939179487
 20
200.57115062537
 30
0.0
 11
204.94795695966
 21
200.57115062537
 31
0.0
  0
LINE
  5
1DF
330
18
100
AcDbEntity
  8
LEVEL001
  6
DASHDOT
 62
     1
370
    15
100
AcDbLine
 10
195.58224124032
 20
201.73703299034
 30
0.0
 11
195.58224124032
 21
199.40526826039
 31
0.0
  0
LINE
  5
1E0
330
18
100
AcDbEntity
  8
LEVEL001
  6
DASHDOT
 62
     1
370
    15
100
AcDbLine
 10
194.61386719571
 20
200.57115062537
 30
0.0
 11
196.55061528493
 21
200.57115062537
 31
0.0
  0
ARC
  5
1E1
330
18
100
AcDbEntity
  8
LEVEL001
  6
DOT
 62
     1
370
    15
100
AcDbCircle
 10
199.33224124035
 20
216.27115062537
 30
0.0
 40
16.4
100
AcDbArc
 50
10.548276958762
 51
169.45172304124
  0
LINE
  5
1E2
330
18
100
AcDbEntity
  8
LEVEL001
  6
DASHDOT
 62
     1
370
    15
100
AcDbLine
 10
198.23224124035
 20
216.67339929562
 30
0.0
 11
200.43224124035
 21
216.67339929562
 31
0.0
  0
CIRCLE
  5
1E3
330
18
100
AcDbEntity
  8
LEVEL001
  6
Continuous
 62
     3
370
    20
100
AcDbCircle
 10
199.33224124035
 20
216.67339929562
 30
0.0
 40
0.5
  0
LINE
  5
1E4
330
18
100
AcDbEntity
  8
LEVEL001
  6
Continuous
 62
     3
370
    20
100
AcDbLine
 10
182.83224124035
 20
215.17115062537
 30
0.0
 11
215.83224124035
 21
215.17115062537
 31
0.0
  0
LINE
  5
1E5
330
18
100
AcDbEntity
  8
LEVEL001
  6
DOT
 62
     1
370
    15
100
AcDbLine
 10
215.45509777763
 20
219.27339929562
 30
0.0
 11
215.5321911557
 21
215.17115062537
 31
0.0
  0
LINE
  5
1E6
330
18
100
AcDbEntity
  8
LEVEL001
  6
DOT
 62
     1
370
    15
100
AcDbLine
 10
183.20938470306
 20
219.27339929562
 30
0.0
 11
183.13229132499
 21
215.17115062537
 31
0.0
  0
LINE
  5
1E7
330
18
100
AcDbEntity
  8
LEVEL001
  6
Continuous
 62
     3
370
    20
100
AcDbLine
 10
215.83224124035
 20
215.17115062537
 30
0.0
 11
215.76336137388
 21
218.94050944217
 31
0.0
  0
ARC
  5
1E8
330
18
100
AcDbEntity
  8
LEVEL001
  6
Continuous
 62
     3
370
    20
100
AcDbCircle
 10
211.76402905773
 20
218.86742712518
 30
0.0
 40
4.0
100
AcDbArc
 50
1.0468853298468
 51
11.796205268401
  0
LINE
  5
1E9
330
18
100
AcDbEntity
  8
LEVEL001
  6
Continuous
 62
     3
370
    20
100
AcDbLine
 10
182.83224124035
 20
215.17115062537
 30
0.0
 11
182.9011211068
 21
218.9405094421
 31
0.0
  0
ARC
  5
1EA
330
18
100
AcDbEntity
  8
LEVEL001
  6
Continuous
 62
     3
370
    20
100
AcDbCircle
 10
186.90045342295
 20
218.86742712512
 30
0.0
 40
4.0
100
AcDbArc
 50
168.20379473184
 51
178.9531146703
  0
ARC
  5
1EB
330
18
100
AcDbEntity
  8
LEVEL001
  6
Continuous
 62
     3
370
    20
100
AcDbCircle
 10
199.33224124035
 20
216.27115062537
 30
0.0
 40
16.7
100
AcDbArc
 50
11.796205268404
 51
168.20379473184
  0
ARC
  5
1EC
330
18
100
AcDbEntity
  8
LEVEL001
  6
Continuous
 62
     3
370
    20
100
AcDbCircle
 10
206.23224124035
 20
215.17115062537
 30
0.0
 40
9.6
100
AcDbArc
 50
270.0
 51
0.0
  0
LINE
  5
1ED
330
18
100
AcDbEntity
  8
LEVEL001
  6
Continuous
 62
     3
370
    20
100
AcDbLine
 10
215.83224124035
 20
215.17115062537
 30
0.0
 11
215.51224124035
 21
215.17115062537
 31
0.0
  0
POINT
  5
1EE
330
18
100
AcDbEntity
  8
LEVEL001
 62
     1
100
AcDbPoint
 10
202.33224124035
 20
206.57115062537
 30
0.0
  0
LINE
  5
1EF
330
18
100
AcDbEntity
  8
LEVEL001
  6
DOT
 62
     1
370
    15
100
AcDbLine
 10
199.33224124035
 20
206.57115062537
 30
0.0
 11
206.23224124035
 21
206.57115062537
 31
0.0
  0
ARC
  5
1F0
330
18
100
AcDbEntity
  8
LEVEL001
  6
DOT
 62
     1
370
    15
100
AcDbCircle
 10
206.23224124035
 20
215.17115062537
 30
0.0
 40
8.6
100
AcDbArc
 50
270.0
 51
0.0
  0
LINE
  5
1F1
330
18
100
AcDbEntity
  8
LEVEL001
  6
DOT
 62
     1
370
    15
100
AcDbLine
 10
215.03224124035
 20
218.17115062537
 30
0.0
 11
214.83224124035
 21
217.97115062537
 31
0.0
  0
LINE
  5
1F2
330
18
100
AcDbEntity
  8
LEVEL001
  6
DOT
 62
     1
370
    15
100
AcDbLine
 10
214.83224124035
 20
215.17115062537
 30
0.0
 11
214.83224124035
 21
217.97115062537
 31
0.0
  0
LINE
  5
1F3
330
18
100
AcDbEntity
  8
LEVEL001
  6
Continuous
 62
     3
370
    20
100
AcDbLine
 10
215.51224124035
 20
215.17115062537
 30
0.0
 11
199.33224124035
 21
215.17115062537
 31
0.0
  0
LINE
  5
1F4
330
18
100
AcDbEntity
  8
LEVEL001
  6
Continuous
 62
     3
370
    20
100
AcDbLine
 10
206.23224124035
 20
205.57115062537
 30
0.0
 11
199.33224124035
 21
205.57115062537
 31
0.0
  0
LINE
  5
1F5
330
18
100
AcDbEntity
  8
LEVEL001
  6
DASHDOT
 62
     1
370
    15
100
AcDbLine
 10
187.93224124035
 20
209.04660982625
 30
0.0
 11
187.93224124035
 21
205.57375514534
 31
0.0
  0
POINT
  5
1F6
330
18
100
AcDbEntity
  8
LEVEL001
 62
     1
100
AcDbPoint
 10
200.83224124035
 20
206.57115062537
 30
0.0
  0
LINE
  5
1F7
330
18
100
AcDbEntity
  8
LEVEL001
  6
DASHDOT
 62
     1
370
    15
100
AcDbLine
 10
199.33224124035
 20
235.16032246769
 30
0.0
 11
199.33224124035
 21
191.57115062537
 31
0.0
  0
ARC
  5
1F8
330
18
100
AcDbEntity
  8
LEVEL001
  6
Continuous
 62
     3
370
    20
100
AcDbCircle
 10
192.43224124035
 20
215.17115062537
 30
0.0
 40
9.6
100
AcDbArc
 50
180.0
 51
270.0
  0
LINE
  5
1F9
330
18
100
AcDbEntity
  8
LEVEL001
  6
Continuous
 62
     3
370
    20
100
AcDbLine
 10
182.83224124035
 20
215.17115062537
 30
0.0
 11
183.15224124035
 21
215.17115062537
 31
0.0
  0
POINT
  5
1FA
330
18
100
AcDbEntity
  8
LEVEL001
 62
     1
100
AcDbPoint
 10
196.33224124035
 20
206.57115062537
 30
0.0
  0
LINE
  5
1FB
330
18
100
AcDbEntity
  8
LEVEL001
  6
DOT
 62
     1
370
    15
100
AcDbLine
 10
199.33224124035
 20
206.57115062537
 30
0.0
 11
192.43224124035
 21
206.57115062537
 31
0.0
  0
ARC
  5
1FC
330
18
100
AcDbEntity
  8
LEVEL001
  6
DOT
 62
     1
370
    15
100
AcDbCircle
 10
192.43224124035
 20
215.17115062537
 30
0.0
 40
8.6
100
AcDbArc
 50
180.0
 51
270.0
  0
LINE
  5
1FD
330
18
100
AcDbEntity
  8
LEVEL001
  6
DOT
 62
     1
370
    15
100
AcDbLine
 10
183.63224124035
 20
218.17115062537
 30
0.0
 11
183.83224124035
 21
217.97115062537
 31
0.0
  0
LINE
  5
1FE
330
18
100
AcDbEntity
  8
LEVEL001
  6
DOT
 62
     1
370
    15
100
AcDbLine
 10
183.83224124035
 20
215.17115062537
 30
0.0
 11
183.83224124035
 21
217.97115062537
 31
0.0
  0
LINE
  5
1FF
330
18
100
AcDbEntity
  8
LEVEL001
  6
Continuous
 62
     3
370
    20
100
AcDbLine
 10
183.15224124035
 20
215.17115062537
 30
0.0
 11
199.33224124035
 21
215.17115062537
 31
0.0
  0
LINE
  5
200
330
18
100
AcDbEntity
  8
LEVEL001
  6
Continuous
 62
     3
370
    20
100
AcDbLine
 10
192.43224124035
 20
205.57115062537
 30
0.0
 11
199.33224124035
 21
205.57115062537
 31
0.0
  0
POINT
  5
201
330
18
100
AcDbEntity
  8
LEVEL001
 62
     1
100
AcDbPoint
 10
197.83224124035
 20
206.57115062537
 30
0.0
  0
ARC
  5
202
330
18
100
AcDbEntity
  8
LEVEL001
  6
DOT
 62
     1
370
    15
100
AcDbCircle
 10
184.08224124035
 20
210.85403353175
 30
0.0
 40
0.2
100
AcDbArc
 50
207.33986850844
 51
0.0
  0
LINE
  5
203
330
18
100
AcDbEntity
  8
LEVEL001
  6
DOT
 62
     1
370
    15
100
AcDbLine
 10
184.28224124035
 20
212.39311174875
 30
0.0
 11
184.28224124035
 21
210.85403353175
 31
0.0
  0
ARC
  5
204
330
18
100
AcDbEntity
  8
LEVEL001
  6
DOT
 62
     1
370
    15
100
AcDbCircle
 10
191.78224124035
 20
205.79365095861
 30
0.0
 40
0.2
100
AcDbArc
 50
180.0
 51
266.03489359891
  0
LINE
  5
205
330
18
100
AcDbEntity
  8
LEVEL001
  6
DOT
 62
     1
370
    15
100
AcDbLine
 10
191.58224124035
 20
206.39518913958
 30
0.0
 11
191.58224124035
 21
205.79365095861
 31
0.0
  0
ARC
  5
206
330
18
100
AcDbEntity
  8
LEVEL001
  6
DOT
 62
     1
370
    15
100
AcDbCircle
 10
191.78224124035
 20
206.39518913958
 30
0.0
 40
0.2
100
AcDbArc
 50
85.764067646726
 51
180.0
  0
ARC
  5
207
330
18
100
AcDbEntity
  8
LEVEL001
  6
DOT
 62
     1
370
    15
100
AcDbCircle
 10
184.08224124035
 20
212.39311174875
 30
0.0
 40
0.2
100
AcDbArc
 50
0.0000000000390827
 51
18.402246195984
  0
POINT
  5
208
330
18
100
AcDbEntity
  8
LEVEL001
 62
     1
100
AcDbPoint
 10
214.83224124035
 20
218.17115062537
 30
0.0
  0
LINE
  5
209
330
18
100
AcDbEntity
  8
LEVEL001
  6
DOT
 62
     1
370
    15
100
AcDbLine
 10
199.33224124035
 20
218.17115062537
 30
0.0
 11
215.03224124035
 21
218.17115062537
 31
0.0
  0
POINT
  5
20A
330
18
100
AcDbEntity
  8
LEVEL001
 62
     1
100
AcDbPoint
 10
183.83224124035
 20
218.17115062537
 30
0.0
  0
LINE
  5
20B
330
18
100
AcDbEntity
  8
LEVEL001
  6
DOT
 62
     1
370
    15
100
AcDbLine
 10
199.33224124035
 20
218.17115062537
 30
0.0
 11
183.63224124035
 21
218.17115062537
 31
0.0
  0
LINE
  5
20C
330
18
100
AcDbEntity
  8
LEVEL001
  6
DOT
 62
     1
370
    15
100
AcDbLine
 10
215.25586237286
 20
218.17115062537
 30
0.0
 11
215.03224124035
 21
218.17115062537
 31
0.0
  0
LINE
  5
20D
330
18
100
AcDbEntity
  8
LEVEL001
  6
DOT
 62
     1
370
    15
100
AcDbLine
 10
215.25586237286
 20
218.17115062537
 30
0.0
 11
215.45586237286
 21
217.97115062537
 31
0.0
  0
POINT
  5
20E
330
18
100
AcDbEntity
  8
LEVEL001
 62
     1
100
AcDbPoint
 10
215.45586237286
 20
218.17115062537
 30
0.0
  0
LINE
  5
20F
330
18
100
AcDbEntity
  8
LEVEL001
  6
DOT
 62
     1
370
    15
100
AcDbLine
 10
215.51224124035
 20
215.17115062537
 30
0.0
 11
215.45586237286
 21
217.97115062537
 31
0.0
  0
LINE
  5
210
330
18
100
AcDbEntity
  8
LEVEL001
  6
DOT
 62
     1
370
    15
100
AcDbLine
 10
183.40862010784
 20
218.17115062537
 30
0.0
 11
183.63224124035
 21
218.17115062537
 31
0.0
  0
LINE
  5
211
330
18
100
AcDbEntity
  8
LEVEL001
  6
DOT
 62
     1
370
    15
100
AcDbLine
 10
183.40862010784
 20
218.17115062537
 30
0.0
 11
183.20862010784
 21
217.97115062537
 31
0.0
  0
POINT
  5
212
330
18
100
AcDbEntity
  8
LEVEL001
 62
     1
100
AcDbPoint
 10
183.20862010784
 20
218.17115062537
 30
0.0
  0
LINE
  5
213
330
18
100
AcDbEntity
  8
LEVEL001
  6
DOT
 62
     1
370
    15
100
AcDbLine
 10
183.15224124035
 20
215.17115062537
 30
0.0
 11
183.20862010784
 21
217.97115062537
 31
0.0
  0
LINE
  5
214
330
18
100
AcDbEntity
  8
LEVEL001
  6
Continuous
 62
     3
370
    20
100
AcDbLine
 10
183.32944309069
 20
152.8676307671
 30
0.0
 11
213.32944309069
 21
152.8676307671
 31
0.0
  0
LINE
  5
215
330
18
100
AcDbEntity
  8
LEVEL001
  6
Continuous
 62
     3
370
    20
100
AcDbLine
 10
185.68224124035
 20
84.009457218151
 30
0.0
 11
186.98224124035
 21
84.009457218151
 31
0.0
  0
LINE
  5
216
330
18
100
AcDbEntity
  8
LEVEL001
  6
Continuous
 62
     3
370
    20
100
AcDbLine
 10
185.35518399752
 20
89.460411265294
 30
0.0
 11
185.68224124035
 21
84.009457218151
 31
0.0
  0
LINE
  5
217
330
18
100
AcDbEntity
  8
LEVEL001
  6
Continuous
 62
     3
370
    20
100
AcDbLine
 10
189.23224124035
 20
89.409457218151
 30
0.0
 11
189.23224124034
 21
83.009457218151
 31
0.0
  0
LINE
  5
218
330
18
100
AcDbEntity
  8
LEVEL001
  6
Continuous
 62
     3
370
    20
100
AcDbLine
 10
189.23224124034
 20
76.609457218151
 30
0.0
 11
189.23224124034
 21
83.009457218151
 31
0.0
  0
LINE
  5
219
330
18
100
AcDbEntity
  8
LEVEL001
  6
Continuous
 62
     3
370
    20
100
AcDbLine
 10
190.33224124035
 20
95.009457218151
 30
0.0
 11
189.23224124035
 21
89.409457218151
 31
0.0
  0
LINE
  5
21A
330
18
100
AcDbEntity
  8
LEVEL001
  6
Continuous
 62
     3
370
    20
100
AcDbLine
 10
190.33224124034
 20
71.009457218151
 30
0.0
 11
189.23224124034
 21
76.609457218151
 31
0.0
  0
ARC
  5
21B
330
18
100
AcDbEntity
  8
LEVEL001
  6
Continuous
 62
     3
370
    20
100
AcDbCircle
 10
188.3627095303
 20
93.454756038807
 30
0.0
 40
5.0
100
AcDbArc
 50
180.0
 51
233.02223081455
  0
LINE
  5
21C
330
18
100
AcDbEntity
  8
LEVEL001
  6
HIDDEN
 62
     1
370
    15
100
AcDbLine
 10
189.83151314075
 20
66.579457218151
 30
0.0
 11
190.33224124034
 21
66.579457218151
 31
0.0
  0
LINE
  5
21D
330
18
100
AcDbEntity
  8
LEVEL001
  6
HIDDEN
 62
     1
370
    15
100
AcDbLine
 10
189.83151314075
 20
66.579457218151
 30
0.0
 11
189.83151314075
 21
66.109457218151
 31
0.0
  0
LINE
  5
21E
330
18
100
AcDbEntity
  8
LEVEL001
  6
HIDDEN
 62
     1
370
    15
100
AcDbLine
 10
189.83151314075
 20
68.309457218151
 30
0.0
 11
189.83151314075
 21
67.839457218151
 31
0.0
  0
LINE
  5
21F
330
18
100
AcDbEntity
  8
LEVEL001
  6
HIDDEN
 62
     1
370
    15
100
AcDbLine
 10
189.83151314075
 20
67.839457218151
 30
0.0
 11
190.33224124034
 21
67.839457218151
 31
0.0
  0
LINE
  5
220
330
18
100
AcDbEntity
  8
LEVEL001
  6
Continuous
 62
     3
370
    20
100
AcDbLine
 10
183.33458036362
 20
96.993324048293
 30
0.0
 11
183.3627095303
 21
93.454756038807
 31
0.0
  0
LINE
  5
221
330
18
100
AcDbEntity
  8
LEVEL001
  6
DOT
 62
     1
370
    15
100
AcDbLine
 10
189.63151314075
 20
66.159457218151
 30
0.0
 11
189.83151314075
 21
66.159457218151
 31
0.0
  0
LINE
  5
222
330
18
100
AcDbEntity
  8
LEVEL001
  6
DOT
 62
     1
370
    15
100
AcDbLine
 10
189.83151314075
 20
68.259457218151
 30
0.0
 11
189.83151314075
 21
66.159457218151
 31
0.0
  0
LINE
  5
223
330
18
100
AcDbEntity
  8
LEVEL001
  6
DOT
 62
     1
370
    15
100
AcDbLine
 10
189.63151314075
 20
68.259457218151
 30
0.0
 11
189.83151314075
 21
68.259457218151
 31
0.0
  0
LINE
  5
224
330
18
100
AcDbEntity
  8
LEVEL001
  6
Continuous
 62
     3
370
    20
100
AcDbLine
 10
189.03151314075
 20
66.759457218151
 30
0.0
 11
189.03151314075
 21
67.659457218151
 31
0.0
  0
LINE
  5
225
330
18
100
AcDbEntity
  8
LEVEL001
  6
Continuous
 62
     3
370
    20
100
AcDbLine
 10
190.33224124034
 20
64.909457218151
 30
0.0
 11
190.33224124034
 21
71.009457218151
 31
0.0
  0
ARC
  5
226
330
18
100
AcDbEntity
  8
LEVEL001
  6
Continuous
 62
     3
370
    20
100
AcDbCircle
 10
195.24372708354
 20
70.441694344509
 30
0.0
 40
12.0
100
AcDbArc
 50
142.92793628941
 51
187.12650048794
  0
LINE
  5
227
330
18
100
AcDbEntity
  8
LEVEL001
  6
HIDDEN
 62
     1
370
    15
100
AcDbLine
 10
189.83151314075
 20
99.43945721815
 30
0.0
 11
190.33224124034
 21
99.439457218151
 31
0.0
  0
LINE
  5
228
330
18
100
AcDbEntity
  8
LEVEL001
  6
HIDDEN
 62
     1
370
    15
100
AcDbLine
 10
189.83151314075
 20
99.43945721815
 30
0.0
 11
189.83151314075
 21
99.90945721815
 31
0.0
  0
LINE
  5
229
330
18
100
AcDbEntity
  8
LEVEL001
  6
HIDDEN
 62
     1
370
    15
100
AcDbLine
 10
189.83151314075
 20
97.70945721815
 30
0.0
 11
189.83151314075
 21
98.17945721815
 31
0.0
  0
LINE
  5
22A
330
18
100
AcDbEntity
  8
LEVEL001
  6
HIDDEN
 62
     1
370
    15
100
AcDbLine
 10
189.83151314075
 20
98.17945721815
 30
0.0
 11
190.33224124034
 21
98.17945721815
 31
0.0
  0
LINE
  5
22B
330
18
100
AcDbEntity
  8
LEVEL001
  6
DOT
 62
     1
370
    15
100
AcDbLine
 10
189.63151314075
 20
99.85945721815
 30
0.0
 11
189.83151314075
 21
99.85945721815
 31
0.0
  0
LINE
  5
22C
330
18
100
AcDbEntity
  8
LEVEL001
  6
DOT
 62
     1
370
    15
100
AcDbLine
 10
189.83151314075
 20
97.75945721815
 30
0.0
 11
189.83151314075
 21
99.85945721815
 31
0.0
  0
LINE
  5
22D
330
18
100
AcDbEntity
  8
LEVEL001
  6
DOT
 62
     1
370
    15
100
AcDbLine
 10
189.63151314075
 20
97.75945721815
 30
0.0
 11
189.83151314075
 21
97.75945721815
 31
0.0
  0
LINE
  5
22E
330
18
100
AcDbEntity
  8
LEVEL001
  6
Continuous
 62
     3
370
    20
100
AcDbLine
 10
189.03151314075
 20
99.25945721815
 30
0.0
 11
189.03151314075
 21
98.35945721815
 31
0.0
  0
LINE
  5
22F
330
18
100
AcDbEntity
  8
LEVEL001
  6
Continuous
 62
     3
370
    20
100
AcDbLine
 10
190.33224124035
 20
101.10945721815
 30
0.0
 11
190.33224124035
 21
95.009457218151
 31
0.0
  0
LWPOLYLINE
  5
230
330
18
100
AcDbEntity
  8
LEVEL001
  6
Continuous
 62
     3
370
    20
100
AcDbPolyline
 90
       65
 70
     0
 43
0.0
 10
182.48432426588
 20
96.039783308683
 10
182.4642177549
 20
95.58435196898
 10
182.44417982109
 20
95.129297945959
 10
182.42427904161
 20
94.674998556304
 10
182.40458399364
 20
94.221831116699
 10
182.38516325434
 20
93.770172943827
 10
182.36608540088
 20
93.320401354372
 10
182.34741901044
 20
92.872893665017
 10
182.32923266018
 20
92.428027192447
 10
182.31159492727
 20
91.986179253345
 10
182.29457438888
 20
91.547727164394
 10
182.27823962218
 20
91.113048242278
 10
182.26265920433
 20
90.682519803681
 10
182.24790171252
 20
90.256519165286
 10
182.2340357239
 20
89.835423643777
 10
182.22112981565
 20
89.419610555837
 10
182.20925256493
 20
89.009457218151
 10
182.19845298728
 20
88.605215175173
 10
182.18870185168
 20
88.20663288245
 10
182.17995036548
 20
87.813333023296
 10
182.172149736
 20
87.424938281029
 10
182.1652511706
 20
87.041071338965
 10
182.15920587663
 20
86.661354880421
 10
182.15396506141
 20
86.285411588712
 10
182.1494799323
 20
85.912864147155
 10
182.14570169664
 20
85.543335239067
 10
182.14258156177
 20
85.176447547764
 10
182.14007073504
 20
84.811823756562
 10
182.13812042378
 20
84.449086548779
 10
182.13668183534
 20
84.087858607729
 10
182.13570617707
 20
83.727762616731
 10
182.1351446563
 20
83.368421259099
 10
182.13494848037
 20
83.009457218151
 10
182.13508511028
 20
82.650493177202
 10
182.1355870215
 20
82.29115181957
 10
182.13650294319
 20
81.93105582857
 10
182.13788160447
 20
81.56982788752
 10
182.13977173447
 20
81.207090679735
 10
182.14222206234
 20
80.842466888532
 10
182.1452813172
 20
80.475579197228
 10
182.1489982282
 20
80.106050289139
 10
182.15342152445
 20
79.733502847582
 10
182.15859993511
 20
79.357559555872
 10
182.1645821893
 20
78.977843097328
 10
182.17141701615
 20
78.593976155264
 10
182.17915314481
 20
78.205581412998
 10
182.1878393044
 20
77.812281553846
 10
182.19752422406
 20
77.413699261125
 10
182.20825663293
 20
77.009457218151
 10
182.22006571967
 20
76.599303880468
 10
182.2329025111
 20
76.183490792532
 10
182.24669849358
 20
75.762395271028
 10
182.26138515346
 20
75.336394632637
 10
182.27689397709
 20
74.905866194045
 10
182.29315645083
 20
74.471187271934
 10
182.31010406103
 20
74.032735182987
 10
182.32766829405
 20
73.590887243889
 10
182.34578063623
 20
73.146020771323
 10
182.36437257394
 20
72.698513081972
 10
182.38337559353
 20
72.24874149252
 10
182.40272118135
 20
71.797083319651
 10
182.42234082375
 20
71.343915880047
 10
182.44216600709
 20
70.889616490393
 10
182.46212821772
 20
70.434562467372
 10
182.482158942
 20
69.979131127667
  0
LWPOLYLINE
  5
231
330
18
100
AcDbEntity
  8
LEVEL001
  6
Continuous
 62
     3
370
    20
100
AcDbPolyline
 90
       65
 70
     0
 43
0.0
 10
183.28161702585
 20
96.039783308683
 10
183.26154849383
 20
95.583622489705
 10
183.24154764535
 20
95.127856151627
 10
183.22168216396
 20
94.672878775351
 10
183.20201973321
 20
94.219084841781
 10
183.18262803665
 20
93.766868831816
 10
183.16357475781
 20
93.316625226359
 10
183.14492758025
 20
92.868748506313
 10
183.12675418752
 20
92.423633152578
 10
183.10912226316
 20
91.981673646057
 10
183.09209949071
 20
91.543264467652
 10
183.07575355373
 20
91.108800098264
 10
183.06015213575
 20
90.678675018796
 10
183.04536292034
 20
90.253283710148
 10
183.03145359103
 20
89.833020653223
 10
183.01849183137
 20
89.418280328924
 10
183.0065453249
 20
89.009457218151
 10
182.99566308717
 20
88.60680286536
 10
182.98581946164
 20
88.209997069224
 10
182.97697012376
 20
87.818576691968
 10
182.969070749
 20
87.432078595816
 10
182.9620770128
 20
87.050039642994
 10
182.95594459062
 20
86.671996695728
 10
182.95062915793
 20
86.297486616242
 10
182.94608639016
 20
85.926046266762
 10
182.94227196279
 20
85.557212509512
 10
182.93914155126
 20
85.190522206719
 10
182.93665083103
 20
84.825512220607
 10
182.93475547756
 20
84.461719413402
 10
182.9334111663
 20
84.098680647328
 10
182.93257357271
 20
83.735932784612
 10
182.93219837224
 20
83.373012687477
 10
182.93224124035
 20
83.009457218151
 10
182.93267053163
 20
82.644871895729
 10
182.93350531725
 20
82.279136866803
 10
182.93477734751
 20
81.912200934836
 10
182.93651837273
 20
81.54401290329
 10
182.93876014321
 20
81.174521575629
 10
182.94153440924
 20
80.803675755315
 10
182.94487292115
 20
80.431424245811
 10
182.94880742923
 20
80.057715850581
 10
182.95336968379
 20
79.682499373088
 10
182.95859143514
 20
79.305723616794
 10
182.96450443358
 20
78.927337385163
 10
182.97114042942
 20
78.547289481657
 10
182.97853117297
 20
78.16552870974
 10
182.98670841453
 20
77.782003872875
 10
182.9957039044
 20
77.396663774524
 10
183.0055493929
 20
77.009457218151
 10
183.01626215372
 20
76.620361515543
 10
183.02780155417
 20
76.229468011786
 10
183.04011248493
 20
75.836896560289
 10
183.05313983669
 20
75.442767014463
 10
183.06682850015
 20
75.047199227718
 10
183.081123366
 20
74.650313053464
 10
183.09596932494
 20
74.25222834511
 10
183.11131126764
 20
73.853064956066
 10
183.12709408481
 20
73.452942739743
 10
183.14326266713
 20
73.05198154955
 10
183.15976190531
 20
72.650301238898
 10
183.17653669002
 20
72.248021661195
 10
183.19353191197
 20
71.845262669853
 10
183.21069246184
 20
71.442144118281
 10
183.22796323033
 20
71.03878585989
 10
183.24528910812
 20
70.635307748088
  0
POINT
  5
232
330
18
100
AcDbEntity
  8
LEVEL001
 62
     2
100
AcDbPoint
 10
190.33224124035
 20
83.009457218151
 30
0.0
  0
ARC
  5
233
330
18
100
AcDbEntity
  8
LEVEL001
  6
Continuous
 62
     3
370
    20
100
AcDbCircle
 10
182.93728760363
 20
68.979131127634
 30
0.0
 40
0.4
100
AcDbArc
 50
189.81802439685
 51
356.24988759824
  0
ARC
  5
234
330
18
100
AcDbEntity
  8
LEVEL001
  6
Continuous
 62
     3
370
    20
100
AcDbCircle
 10
182.93728760365
 20
97.039783308676
 30
0.0
 40
0.4
100
AcDbArc
 50
353.33014694041
 51
170.18197560322
  0
LWPOLYLINE
  5
235
330
18
100
AcDbEntity
  8
LEVEL001
  6
Continuous
 62
     3
370
    20
100
AcDbPolyline
 90
      161
 70
     0
 43
0.0
 10
182.54314588191
 20
97.107991102817
 10
182.52431766702
 20
96.991870087535
 10
182.50545260245
 20
96.875395252192
 10
182.48651383852
 20
96.758212776729
 10
182.46746452555
 20
96.639968841089
 10
182.44826781386
 20
96.520309625212
 10
182.42888685379
 20
96.398881309039
 10
182.40928479564
 20
96.275330072512
 10
182.38942478975
 20
96.149302095573
 10
182.36926998644
 20
96.020443558163
 10
182.34878353603
 20
95.888400640223
 10
182.32792858884
 20
95.752819521694
 10
182.30666829519
 20
95.613346382519
 10
182.28496580542
 20
95.469627402637
 10
182.26278426983
 20
95.321308761992
 10
182.24008683876
 20
95.168036640524
 10
182.21683666253
 20
95.009457218174
 10
182.19301738723
 20
94.845350410443
 10
182.16869464212
 20
94.676031075062
 10
182.14395455221
 20
94.50194780532
 10
182.1188832425
 20
94.323549194505
 10
182.09356683803
 20
94.141283835906
 10
182.06809146381
 20
93.955600322812
 10
182.04254324484
 20
93.766947248511
 10
182.01700830616
 20
93.575773206293
 10
181.99157277278
 20
93.382526789446
 10
181.96632276971
 20
93.187656591258
 10
181.94134442197
 20
92.991611205018
 10
181.91672385459
 20
92.794839224016
 10
181.89254719256
 20
92.597789241539
 10
181.86890056092
 20
92.400909850877
 10
181.84587008468
 20
92.204649645318
 10
181.82354188885
 20
92.009457218151
 10
181.80198266197
 20
91.815686389434
 10
181.78118134659
 20
91.623311886305
 10
181.76110744881
 20
91.432213662674
 10
181.74173047468
 20
91.242271672448
 10
181.7230199303
 20
91.053365869537
 10
181.70494532174
 20
90.865376207849
 10
181.68747615508
 20
90.678182641293
 10
181.6705819364
 20
90.491665123778
 10
181.65423217177
 20
90.305703609211
 10
181.63839636727
 20
90.120178051503
 10
181.62304402899
 20
89.93496840456
 10
181.60814466299
 20
89.749954622294
 10
181.59366777536
 20
89.56501665861
 10
181.57958287218
 20
89.38003446742
 10
181.56585945951
 20
89.19488800263
 10
181.55246704345
 20
89.009457218151
 10
181.53938205513
 20
88.823647340751
 10
181.52660862593
 20
88.637464688647
 10
181.51415781232
 20
88.450940852915
 10
181.50204067073
 20
88.264107424632
 10
181.49026825763
 20
88.076995994875
 10
181.47885162946
 20
87.889638154719
 10
181.46780184266
 20
87.702065495243
 10
181.4571299537
 20
87.514309607522
 10
181.44684701901
 20
87.326402082633
 10
181.43696409506
 20
87.138374511653
 10
181.42749223829
 20
86.950258485658
 10
181.41844250515
 20
86.762085595726
 10
181.40982595209
 20
86.573887432932
 10
181.40165363556
 20
86.385695588354
 10
181.39393661201
 20
86.197541653068
 10
181.38668593789
 20
86.009457218151
 10
181.37991001353
 20
85.821467556463
 10
181.37360661473
 20
85.633572668006
 10
181.36777086119
 20
85.445766234562
 10
181.36239787259
 20
85.258041937918
 10
181.35748276861
 20
85.070393459858
 10
181.35302066894
 20
84.882814482167
 10
181.34900669327
 20
84.695298686629
 10
181.34543596129
 20
84.507839755028
 10
181.34230359267
 20
84.32043136915
 10
181.33960470711
 20
84.13306721078
 10
181.33733442429
 20
83.945740961701
 10
181.3354878639
 20
83.758446303699
 10
181.33406014563
 20
83.571176918558
 10
181.33304638915
 20
83.383926488063
 10
181.33244171416
 20
83.196688693999
 10
181.33224124035
 20
83.00945721815
 10
181.33244171416
 20
82.822225742301
 10
181.33304638915
 20
82.634987948237
 10
181.33406014562
 20
82.447737517743
 10
181.33548786389
 20
82.260468132602
 10
181.33733442428
 20
82.0731734746
 10
181.3396047071
 20
81.885847225522
 10
181.34230359266
 20
81.698483067152
 10
181.34543596127
 20
81.511074681274
 10
181.34900669326
 20
81.323615749674
 10
181.35302066893
 20
81.136099954136
 10
181.35748276859
 20
80.948520976444
 10
181.36239787257
 20
80.760872498384
 10
181.36777086118
 20
80.57314820174
 10
181.37360661472
 20
80.385341768297
 10
181.37991001352
 20
80.197446879839
 10
181.38668593789
 20
80.009457218151
 10
181.39393661201
 20
79.821372783233
 10
181.40165363556
 20
79.633218847946
 10
181.40982595209
 20
79.445027003367
 10
181.41844250515
 20
79.256828840572
 10
181.42749223829
 20
79.068655950639
 10
181.43696409506
 20
78.880539924644
 10
181.44684701902
 20
78.692512353664
 10
181.4571299537
 20
78.504604828775
 10
181.46780184266
 20
78.316848941054
 10
181.47885162946
 20
78.129276281577
 10
181.49026825763
 20
77.941918441422
 10
181.50204067073
 20
77.754807011665
 10
181.51415781231
 20
77.567973583383
 10
181.52660862592
 20
77.381449747652
 10
181.53938205511
 20
77.195267095549
 10
181.55246704342
 20
77.009457218151
 10
181.56585945948
 20
76.824026433672
 10
181.57958287214
 20
76.638879968884
 10
181.59366777532
 20
76.453897777695
 10
181.60814466295
 20
76.268959814013
 10
181.62304402894
 20
76.083946031747
 10
181.63839636723
 20
75.898736384806
 10
181.65423217172
 20
75.713210827098
 10
181.67058193635
 20
75.527249312532
 10
181.68747615503
 20
75.340731795016
 10
181.70494532169
 20
75.15353822846
 10
181.72301993025
 20
74.965548566772
 10
181.74173047464
 20
74.77664276386
 10
181.76110744877
 20
74.586700773633
 10
181.78118134656
 20
74.39560255
 10
181.80198266194
 20
74.20322804687
 10
181.82354188884
 20
74.009457218151
 10
181.84587008467
 20
73.814264790981
 10
181.86890056093
 20
73.61800458542
 10
181.89254719258
 20
73.421125194756
 10
181.91672385461
 20
73.224075212278
 10
181.94134442201
 20
73.027303231275
 10
181.96632276975
 20
72.831257845035
 10
181.99157277282
 20
72.636387646847
 10
182.01700830621
 20
72.443141230001
 10
182.0425432449
 20
72.251967187784
 10
182.06809146386
 20
72.063314113485
 10
182.09356683808
 20
71.877630600394
 10
182.11888324255
 20
71.695365241798
 10
182.14395455225
 20
71.516966630988
 10
182.16869464216
 20
71.34288336125
 10
182.19301738726
 20
71.173564025875
 10
182.21683666253
 20
71.009457218151
 10
182.24008683875
 20
70.850877795808
 10
182.26278426981
 20
70.697605674346
 10
182.28496580538
 20
70.549287033707
 10
182.30666829514
 20
70.405568053831
 10
182.32792858877
 20
70.26609491466
 10
182.34878353595
 20
70.130513796134
 10
182.36926998636
 20
69.998470878197
 10
182.38942478966
 20
69.869612340787
 10
182.40928479555
 20
69.743584363848
 10
182.42888685369
 20
69.620033127319
 10
182.44826781377
 20
69.498604811143
 10
182.46746452545
 20
69.378945595261
 10
182.48651383843
 20
69.260701659613
 10
182.50545260238
 20
69.143519184142
 10
182.52431766697
 20
69.027044348788
 10
182.54314588189
 20
68.910923333493
  0
ARC
  5
236
330
18
100
AcDbEntity
  8
LEVEL001
  6
Continuous
 62
     3
370
    20
100
AcDbCircle
 10
186.30749408502
 20
77.193267479421
 30
0.0
 40
0.8
100
AcDbArc
 50
21.936801848504
 51
142.9279362894
  0
LINE
  5
237
330
18
100
AcDbEntity
  8
LEVEL001
  6
Continuous
 62
     3
370
    20
100
AcDbLine
 10
187.29013891535
 20
89.141085134907
 30
0.0
 11
186.98224124035
 21
84.009457218151
 31
0.0
  0
LINE
  5
238
330
18
100
AcDbEntity
  8
LEVEL001
  6
HIDDEN
 62
     1
370
    15
100
AcDbLine
 10
189.50313788045
 20
99.90945721815
 30
0.0
 11
189.83151314075
 21
99.90945721815
 31
0.0
  0
ARC
  5
239
330
18
100
AcDbEntity
  8
LEVEL001
  6
DOT
 62
     1
370
    15
100
AcDbCircle
 10
189.63151314075
 20
99.25945721815
 30
0.0
 40
0.6
100
AcDbArc
 50
89.99999999960899
 51
102.62388350062
  0
ARC
  5
23A
330
18
100
AcDbEntity
  8
LEVEL001
  6
DOT
 62
     1
370
    15
100
AcDbCircle
 10
189.63151314077
 20
98.35945721815
 30
0.0
 40
0.6
100
AcDbArc
 50
242.30847316514
 51
269.99999999869
  0
LINE
  5
23B
330
18
100
AcDbEntity
  8
LEVEL001
  6
HIDDEN
 62
     1
370
    15
100
AcDbLine
 10
189.34025552003
 20
97.70945721815
 30
0.0
 11
189.83151314075
 21
97.70945721815
 31
0.0
  0
ARC
  5
23C
330
18
100
AcDbEntity
  8
LEVEL001
  6
Continuous
 62
     3
370
    20
100
AcDbCircle
 10
189.63151314075
 20
98.359457218157
 30
0.0
 40
0.6
100
AcDbArc
 50
180.00000000059
 51
242.30847316659
  0
ARC
  5
23D
330
18
100
AcDbEntity
  8
LEVEL001
  6
Continuous
 62
     3
370
    20
100
AcDbCircle
 10
189.63151314075
 20
99.259457218151
 30
0.0
 40
0.6
100
AcDbArc
 50
102.62388350102
 51
180.00000000008
  0
LINE
  5
23E
330
18
100
AcDbEntity
  8
LEVEL001
  6
HIDDEN
 62
     1
370
    15
100
AcDbLine
 10
189.34025552003
 20
68.309457218151
 30
0.0
 11
189.83151314075
 21
68.309457218151
 31
0.0
  0
ARC
  5
23F
330
18
100
AcDbEntity
  8
LEVEL001
  6
DOT
 62
     1
370
    15
100
AcDbCircle
 10
189.63151314077
 20
67.659457218151
 30
0.0
 40
0.6
100
AcDbArc
 50
90.000000001307
 51
117.69152683485
  0
ARC
  5
240
330
18
100
AcDbEntity
  8
LEVEL001
  6
DOT
 62
     1
370
    15
100
AcDbCircle
 10
189.63151314075
 20
66.759457218151
 30
0.0
 40
0.6
100
AcDbArc
 50
257.37611649929
 51
270.00000000034
  0
LINE
  5
241
330
18
100
AcDbEntity
  8
LEVEL001
  6
HIDDEN
 62
     1
370
    15
100
AcDbLine
 10
189.50313788045
 20
66.109457218151
 30
0.0
 11
189.83151314075
 21
66.109457218151
 31
0.0
  0
ARC
  5
242
330
18
100
AcDbEntity
  8
LEVEL001
  6
Continuous
 62
     3
370
    20
100
AcDbCircle
 10
189.63151314075
 20
66.75945721815
 30
0.0
 40
0.6
100
AcDbArc
 50
179.99999999993
 51
257.37611649898
  0
ARC
  5
243
330
18
100
AcDbEntity
  8
LEVEL001
  6
Continuous
 62
     3
370
    20
100
AcDbCircle
 10
189.63151314075
 20
67.659457218145
 30
0.0
 40
0.6
100
AcDbArc
 50
117.69152683341
 51
179.99999999941
  0
ARC
  5
244
330
18
100
AcDbEntity
  8
LEVEL001
  6
Continuous
 62
     3
370
    20
100
AcDbCircle
 10
155.23301175519
 20
101.34069981068
 30
0.0
 40
34.3
100
AcDbArc
 50
339.16524836755
 51
359.6181751394
  0
ARC
  5
245
330
18
100
AcDbEntity
  8
LEVEL001
  6
Continuous
 62
     3
370
    20
100
AcDbCircle
 10
155.23301175519
 20
64.678214625623
 30
0.0
 40
34.3
100
AcDbArc
 50
0.38182486060219
 51
21.936801848487
  0
ARC
  5
246
330
18
100
AcDbEntity
  8
LEVEL001
  6
Continuous
 62
     3
370
    20
100
AcDbCircle
 10
189.93224124034
 20
64.909457218153
 30
0.0
 40
0.4
100
AcDbArc
 50
269.99999999995
 51
0.0
  0
ARC
  5
247
330
18
100
AcDbEntity
  8
LEVEL001
  6
Continuous
 62
     3
370
    20
100
AcDbCircle
 10
189.93224124034
 20
64.909457218153
 30
0.0
 40
0.4
100
AcDbArc
 50
180.38182486092
 51
269.99999999998
  0
ARC
  5
248
330
18
100
AcDbEntity
  8
LEVEL001
  6
Continuous
 62
     3
370
    20
100
AcDbCircle
 10
189.93224124034
 20
101.10945721815
 30
0.0
 40
0.4
100
AcDbArc
 50
0.0000000003094044
 51
90.000000000049
  0
ARC
  5
249
330
18
100
AcDbEntity
  8
LEVEL001
  6
Continuous
 62
     3
370
    20
100
AcDbCircle
 10
189.93224124034
 20
101.10945721815
 30
0.0
 40
0.4
100
AcDbArc
 50
90.00000000002301
 51
179.61817513909
  0
LWPOLYLINE
  5
24A
330
18
100
AcDbEntity
  8
LEVEL001
  6
DOT
 62
     1
370
    15
100
AcDbPolyline
 90
        4
 70
     0
 43
0.0
 10
189.83151314075
 20
66.609457218165
 10
193.03151314075
 20
66.609457218165
 10
193.03151314075
 20
67.809457218165
 10
189.83151314073
 20
67.809457218165
  0
LINE
  5
24B
330
18
100
AcDbEntity
  8
LEVEL001
  6
DASHDOT
 62
     1
370
    15
100
AcDbLine
 10
188.51547494274
 20
67.209457218151
 30
0.0
 11
193.56028738569
 21
67.209457218151
 31
0.0
  0
LWPOLYLINE
  5
24C
330
18
100
AcDbEntity
  8
LEVEL001
  6
DOT
 62
     1
370
    15
100
AcDbPolyline
 90
        4
 70
     0
 43
0.0
 10
189.83151314075
 20
99.409457218137
 10
193.03151314075
 20
99.409457218137
 10
193.03151314075
 20
98.209457218137
 10
189.83151314073
 20
98.209457218137
  0
LINE
  5
24D
330
18
100
AcDbEntity
  8
LEVEL001
  6
DASHDOT
 62
     1
370
    15
100
AcDbLine
 10
188.51547494274
 20
98.80945721815
 30
0.0
 11
193.56028738569
 21
98.80945721815
 31
0.0
  0
TEXT
  5
24E
330
18
100
AcDbEntity
  8
LEVEL001
 62
     3
370
    20
100
AcDbText
 10
193.46160515585
 20
29.975755375835
 30
0.0
 40
5.0
  1
Ｓ＝１：５
 41
0.5
 72
     5
 11
205.96160515585
 21
29.975755375835
 31
0.0
100
AcDbText
  0
TEXT
  5
24F
330
18
100
AcDbEntity
  8
LEVEL001
 62
     3
370
    20
100
AcDbText
 10
179.71160515585
 20
35.975755375835
 30
0.0
 40
5.0
  1
ロープ掛け部詳細
 72
     5
 11
219.71160515585
 21
35.975755375835
 31
0.0
100
AcDbText
  0
TEXT
  5
250
330
18
100
AcDbEntity
  8
LEVEL001
 62
     3
370
    20
100
AcDbText
 10
192.07944309069
 20
147.8676307671
 30
0.0
 40
5.0
  1
Ｓ＝１：５
 41
0.5
 72
     5
 11
204.57944309069
 21
147.8676307671
 31
0.0
100
AcDbText
  0
TEXT
  5
251
330
18
100
AcDbEntity
  8
LEVEL001
 62
     3
370
    20
100
AcDbText
 10
185.82944309069
 20
153.8676307671
 30
0.0
 40
5.0
  1
先端部詳細
 72
     5
 11
210.82944309069
 21
153.8676307671
 31
0.0
100
AcDbText
  0
POLYLINE
  5
252
330
18
100
AcDbEntity
  8
LEVEL001
  6
Continuous
 62
     1
370
    15
100
AcDb2dPolyline
 66
     1
 10
0.0
 20
0.0
 30
0.0
  0
VERTEX
  5
253
330
252
100
AcDbEntity
  8
LEVEL001
  6
Continuous
 62
     1
100
AcDbVertex
100
AcDb2dVertex
 10
189.03151314076
 20
98.809457218151
 30
0.0
  0
VERTEX
  5
254
330
252
100
AcDbEntity
  8
LEVEL001
  6
Continuous
 62
     1
100
AcDbVertex
100
AcDb2dVertex
 10
175.60793340631
 20
108.49348326628
 30
0.0
  0
VERTEX
  5
255
330
252
100
AcDbEntity
  8
LEVEL001
  6
Continuous
 62
     1
100
AcDbVertex
100
AcDb2dVertex
 10
147.60793340631
 20
108.49348326628
 30
0.0
  0
SEQEND
  5
256
330
252
100
AcDbEntity
  8
LEVEL001
  6
Continuous
 62
     1
  0
LINE
  5
257
330
18
100
AcDbEntity
  8
LEVEL001
  6
Continuous
 62
     1
370
    15
100
AcDbLine
 10
189.03151314076
 20
98.809457218151
 30
0.0
 11
187.06884927422
 21
101.21655536208
 31
0.0
  0
LINE
  5
258
330
18
100
AcDbEntity
  8
LEVEL001
  6
Continuous
 62
     1
370
    15
100
AcDbLine
 10
189.03151314076
 20
98.809457218151
 30
0.0
 11
186.12824730128
 21
99.91273342693
 31
0.0
  0
MTEXT
  5
259
102
{ACAD_REACTORS
330
258
102
}
330
18
100
AcDbEntity
  8
LEVEL001
 62
     3
370
    20
100
AcDbMText
 10
147.60793340631
 20
110.20776898056
 30
0.0
 40
4.0
 41
0.0
 71
     7
 72
     1
  1
\A1;２－Ｍ６ナベビス
 73
     1
 44
1.0
  0
LINE
  5
25A
330
18
100
AcDbEntity
  8
LEVEL001
  6
Continuous
 62
     1
370
    15
100
AcDbLine
 10
181.33224124034
 20
85.00945721815
 30
0.0
 11
181.33224124034
 21
110.66485592539
 31
0.0
  0
LINE
  5
25B
330
18
100
AcDbEntity
  8
LEVEL001
  6
Continuous
 62
     1
370
    15
100
AcDbLine
 10
181.33224124034
 20
108.66485592539
 30
0.0
 11
185.83224124034
 21
108.66485592539
 31
0.0
  0
LINE
  5
25C
330
18
100
AcDbEntity
  8
LEVEL001
  6
Continuous
 62
     1
370
    15
100
AcDbLine
 10
190.33224124034
 20
108.66485592539
 30
0.0
 11
185.83224124034
 21
108.66485592539
 31
0.0
  0
LINE
  5
25D
330
18
100
AcDbEntity
  8
LEVEL001
  6
Continuous
 62
     1
370
    15
100
AcDbLine
 10
181.33224124034
 20
108.66485592539
 30
0.0
 11
184.33224124034
 21
107.8610083481
 31
0.0
  0
LINE
  5
25E
330
18
100
AcDbEntity
  8
LEVEL001
  6
Continuous
 62
     1
370
    15
100
AcDbLine
 10
181.33224124034
 20
108.66485592539
 30
0.0
 11
184.33224124034
 21
109.46870350268
 31
0.0
  0
LINE
  5
25F
330
18
100
AcDbEntity
  8
LEVEL001
  6
Continuous
 62
     1
370
    15
100
AcDbLine
 10
190.33224124034
 20
108.66485592539
 30
0.0
 11
187.33224124034
 21
109.46870350268
 31
0.0
  0
LINE
  5
260
330
18
100
AcDbEntity
  8
LEVEL001
  6
Continuous
 62
     1
370
    15
100
AcDbLine
 10
190.33224124034
 20
108.66485592539
 30
0.0
 11
187.33224124034
 21
107.8610083481
 31
0.0
  0
MTEXT
  5
261
330
18
100
AcDbEntity
  8
LEVEL001
 62
     3
370
    20
100
AcDbMText
 10
185.83224124034
 20
110.37914163967
 30
0.0
 40
4.0
 41
0.0
 71
     8
 72
     1
  1
\A1;(45)
 73
     1
 44
1.0
  0
LINE
  5
262
330
18
100
AcDbEntity
  8
LEVEL001
  6
Continuous
 62
     1
370
    15
100
AcDbLine
 10
187.05994199811
 20
220.61007048674
 30
0.0
 11
178.99241253944
 21
226.0034599689
 31
0.0
  0
CIRCLE
  5
263
330
18
100
AcDbEntity
  8
LEVEL001
  6
Continuous
 62
     1
370
    15
100
AcDbCircle
 10
175.66707468206
 20
228.22654974087
 30
0.0
 40
4.0
  0
LINE
  5
264
330
18
100
AcDbEntity
  8
LEVEL001
  6
Continuous
 62
     1
370
    15
100
AcDbLine
 10
187.05994199811
 20
220.61007048674
 30
0.0
 11
185.01269493689
 21
222.94565401081
 31
0.0
  0
LINE
  5
265
330
18
100
AcDbEntity
  8
LEVEL001
  6
Continuous
 62
     1
370
    15
100
AcDbLine
 10
187.05994199811
 20
220.61007048674
 30
0.0
 11
184.11918227324
 21
221.60912162064
 31
0.0
  0
MTEXT
  5
266
330
18
100
AcDbEntity
  8
LEVEL001
 62
     3
370
    20
100
AcDbMText
 10
172.83864755731
 20
225.39812261613
 30
0.0
 40
5.6568542494924
 41
0.0
 71
     7
 72
     1
  1
\A1;３
 73
     1
 44
1.0
  0
LINE
  5
267
330
18
100
AcDbEntity
  8
LEVEL001
  6
Continuous
 62
     1
370
    15
100
AcDbLine
 10
189.83224124035
 20
203.57115062537
 30
0.0
 11
164.22416548295
 21
203.57115062537
 31
0.0
  0
LINE
  5
268
330
18
100
AcDbEntity
  8
LEVEL001
  6
Continuous
 62
     1
370
    15
100
AcDbLine
 10
197.33224124035
 20
232.97115062537
 30
0.0
 11
164.22416548295
 21
232.97115062537
 31
0.0
  0
LINE
  5
269
330
18
100
AcDbEntity
  8
LEVEL001
  6
Continuous
 62
     1
370
    15
100
AcDbLine
 10
166.22416548295
 20
203.57115062537
 30
0.0
 11
166.22416548295
 21
218.27115062537
 31
0.0
  0
LINE
  5
26A
330
18
100
AcDbEntity
  8
LEVEL001
  6
Continuous
 62
     1
370
    15
100
AcDbLine
 10
166.22416548295
 20
232.97115062537
 30
0.0
 11
166.22416548295
 21
218.27115062537
 31
0.0
  0
LINE
  5
26B
330
18
100
AcDbEntity
  8
LEVEL001
  6
Continuous
 62
     1
370
    15
100
AcDbLine
 10
166.22416548295
 20
203.57115062537
 30
0.0
 11
167.02801306025
 21
206.57115062537
 31
0.0
  0
LINE
  5
26C
330
18
100
AcDbEntity
  8
LEVEL001
  6
Continuous
 62
     1
370
    15
100
AcDbLine
 10
166.22416548295
 20
203.57115062537
 30
0.0
 11
165.42031790566
 21
206.57115062537
 31
0.0
  0
LINE
  5
26D
330
18
100
AcDbEntity
  8
LEVEL001
  6
Continuous
 62
     1
370
    15
100
AcDbLine
 10
166.22416548295
 20
232.97115062537
 30
0.0
 11
165.42031790566
 21
229.97115062537
 31
0.0
  0
LINE
  5
26E
330
18
100
AcDbEntity
  8
LEVEL001
  6
Continuous
 62
     1
370
    15
100
AcDbLine
 10
166.22416548295
 20
232.97115062537
 30
0.0
 11
167.02801306025
 21
229.97115062537
 31
0.0
  0
MTEXT
  5
26F
330
18
100
AcDbEntity
  8
LEVEL001
 62
     3
370
    20
100
AcDbMText
 10
164.50987976867
 20
218.27115062537
 30
0.0
 40
4.0
 41
0.0
 71
     8
 72
     1
  1
\A1;(147)
 11
0.0
 21
1.0
 31
0.0
 73
     1
 44
1.0
  0
LINE
  5
270
330
18
100
AcDbEntity
  8
LEVEL001
  6
Continuous
 62
     1
370
    15
100
AcDbLine
 10
182.83224124035
 20
217.17115062537
 30
0.0
 11
182.83224124035
 21
246.4095780625
 31
0.0
  0
LINE
  5
271
330
18
100
AcDbEntity
  8
LEVEL001
  6
Continuous
 62
     1
370
    15
100
AcDbLine
 10
215.83224124035
 20
217.17115062537
 30
0.0
 11
215.83224124035
 21
246.4095780625
 31
0.0
  0
LINE
  5
272
330
18
100
AcDbEntity
  8
LEVEL001
  6
Continuous
 62
     1
370
    15
100
AcDbLine
 10
182.83224124035
 20
244.4095780625
 30
0.0
 11
199.33224124035
 21
244.4095780625
 31
0.0
  0
LINE
  5
273
330
18
100
AcDbEntity
  8
LEVEL001
  6
Continuous
 62
     1
370
    15
100
AcDbLine
 10
215.83224124035
 20
244.4095780625
 30
0.0
 11
199.33224124035
 21
244.4095780625
 31
0.0
  0
LINE
  5
274
330
18
100
AcDbEntity
  8
LEVEL001
  6
Continuous
 62
     1
370
    15
100
AcDbLine
 10
182.83224124035
 20
244.4095780625
 30
0.0
 11
185.83224124035
 21
243.60573048521
 31
0.0
  0
LINE
  5
275
330
18
100
AcDbEntity
  8
LEVEL001
  6
Continuous
 62
     1
370
    15
100
AcDbLine
 10
182.83224124035
 20
244.4095780625
 30
0.0
 11
185.83224124035
 21
245.21342563979
 31
0.0
  0
LINE
  5
276
330
18
100
AcDbEntity
  8
LEVEL001
  6
Continuous
 62
     1
370
    15
100
AcDbLine
 10
215.83224124035
 20
244.4095780625
 30
0.0
 11
212.83224124035
 21
245.21342563979
 31
0.0
  0
LINE
  5
277
330
18
100
AcDbEntity
  8
LEVEL001
  6
Continuous
 62
     1
370
    15
100
AcDbLine
 10
215.83224124035
 20
244.4095780625
 30
0.0
 11
212.83224124035
 21
243.60573048521
 31
0.0
  0
MTEXT
  5
278
330
18
100
AcDbEntity
  8
LEVEL001
 62
     3
370
    20
100
AcDbMText
 10
199.33224124035
 20
246.12386377679
 30
0.0
 40
4.0
 41
0.0
 71
     8
 72
     1
  1
\A1;%%c165
 73
     1
 44
1.0
  0
LINE
  5
279
330
18
100
AcDbEntity
  8
LEVEL001
  6
Continuous
 62
     1
370
    15
100
AcDbLine
 10
187.93224124034
 20
101.50945721815
 30
0.0
 11
166.40104364676
 21
101.50945721815
 31
0.0
  0
LINE
  5
27A
330
18
100
AcDbEntity
  8
LEVEL001
  6
Continuous
 62
     1
370
    15
100
AcDbLine
 10
187.93224124034
 20
64.509457218153
 30
0.0
 11
166.40104364676
 21
64.509457218153
 31
0.0
  0
LINE
  5
27B
330
18
100
AcDbEntity
  8
LEVEL001
  6
Continuous
 62
     1
370
    15
100
AcDbLine
 10
168.40104364676
 20
101.50945721815
 30
0.0
 11
168.40104364676
 21
83.009457218151
 31
0.0
  0
LINE
  5
27C
330
18
100
AcDbEntity
  8
LEVEL001
  6
Continuous
 62
     1
370
    15
100
AcDbLine
 10
168.40104364676
 20
64.509457218153
 30
0.0
 11
168.40104364676
 21
83.009457218151
 31
0.0
  0
LINE
  5
27D
330
18
100
AcDbEntity
  8
LEVEL001
  6
Continuous
 62
     1
370
    15
100
AcDbLine
 10
168.40104364676
 20
101.50945721815
 30
0.0
 11
167.59719606947
 21
98.509457218148
 31
0.0
  0
LINE
  5
27E
330
18
100
AcDbEntity
  8
LEVEL001
  6
Continuous
 62
     1
370
    15
100
AcDbLine
 10
168.40104364676
 20
101.50945721815
 30
0.0
 11
169.20489122405
 21
98.509457218148
 31
0.0
  0
LINE
  5
27F
330
18
100
AcDbEntity
  8
LEVEL001
  6
Continuous
 62
     1
370
    15
100
AcDbLine
 10
168.40104364676
 20
64.509457218153
 30
0.0
 11
169.20489122405
 21
67.509457218153
 31
0.0
  0
LINE
  5
280
330
18
100
AcDbEntity
  8
LEVEL001
  6
Continuous
 62
     1
370
    15
100
AcDbLine
 10
168.40104364676
 20
64.509457218153
 30
0.0
 11
167.59719606947
 21
67.509457218153
 31
0.0
  0
MTEXT
  5
281
330
18
100
AcDbEntity
  8
LEVEL001
 62
     3
370
    20
100
AcDbMText
 10
166.68675793248
 20
83.009457218151
 30
0.0
 40
4.0
 41
0.0
 71
     8
 72
     1
  1
\A1;(185)
 11
0.0
 21
1.0
 31
0.0
 73
     1
 44
1.0
  0
POLYLINE
  5
282
330
18
100
AcDbEntity
  8
LEVEL001
  6
Continuous
 62
     1
370
    15
100
AcDb2dPolyline
 66
     1
 10
0.0
 20
0.0
 30
0.0
  0
VERTEX
  5
283
330
282
100
AcDbEntity
  8
LEVEL001
  6
Continuous
 62
     1
100
AcDbVertex
100
AcDb2dVertex
 10
184.58224124035
 20
197.3983280625
 30
0.0
  0
VERTEX
  5
284
330
282
100
AcDbEntity
  8
LEVEL001
  6
Continuous
 62
     1
100
AcDbVertex
100
AcDb2dVertex
 10
177.74051505946
 20
186.48788049185
 30
0.0
  0
VERTEX
  5
285
330
282
100
AcDbEntity
  8
LEVEL001
  6
Continuous
 62
     1
100
AcDbVertex
100
AcDb2dVertex
 10
159.77002147506
 20
186.48788049185
 30
0.0
  0
SEQEND
  5
286
330
282
100
AcDbEntity
  8
LEVEL001
  6
Continuous
 62
     1
  0
LINE
  5
287
330
18
100
AcDbEntity
  8
LEVEL001
  6
Continuous
 62
     1
370
    15
100
AcDbLine
 10
184.58224124035
 20
197.3983280625
 30
0.0
 11
182.30742026667
 21
195.2837688968
 31
0.0
  0
LINE
  5
288
330
18
100
AcDbEntity
  8
LEVEL001
  6
Continuous
 62
     1
370
    15
100
AcDbLine
 10
184.58224124035
 20
197.3983280625
 30
0.0
 11
183.66946807093
 21
194.42965562036
 31
0.0
  0
MTEXT
  5
289
102
{ACAD_REACTORS
330
288
102
}
330
18
100
AcDbEntity
  8
LEVEL001
 62
     3
370
    20
100
AcDbMText
 10
159.77002147506
 20
187.46583959551
 30
0.0
 40
4.0
 41
0.0
 71
     4
 72
     1
  1
\A1;%%c８ロープ\P　　７ｍ
 73
     1
 44
1.0
  0
LINE
  5
28A
330
18
100
AcDbEntity
  8
LEVEL001
  6
Continuous
 62
     3
370
    20
100
AcDbLine
 10
86.395882045935
 20
127.28533135298
 30
0.0
 11
86.612548712602
 21
127.28533135298
 31
0.0
  0
LINE
  5
28B
330
18
100
AcDbEntity
  8
LEVEL001
  6
Continuous
 62
     3
370
    20
100
AcDbLine
 10
86.341372505464
 20
128.19382369417
 30
0.0
 11
86.395882045935
 21
127.28533135298
 31
0.0
  0
LINE
  5
28C
330
18
100
AcDbEntity
  8
LEVEL001
  6
Continuous
 62
     3
370
    20
100
AcDbLine
 10
86.987548712602
 20
128.18533135298
 30
0.0
 11
86.987548712602
 21
127.11866468631
 31
0.0
  0
LINE
  5
28D
330
18
100
AcDbEntity
  8
LEVEL001
  6
Continuous
 62
     3
370
    20
100
AcDbLine
 10
86.987548712602
 20
126.05199801964
 30
0.0
 11
86.987548712602
 21
127.11866468631
 31
0.0
  0
LINE
  5
28E
330
18
100
AcDbEntity
  8
LEVEL001
  6
Continuous
 62
     3
370
    20
100
AcDbLine
 10
87.170882045935
 20
129.11866468631
 30
0.0
 11
86.987548712602
 21
128.18533135298
 31
0.0
  0
LINE
  5
28F
330
18
100
AcDbEntity
  8
LEVEL001
  6
Continuous
 62
     3
370
    20
100
AcDbLine
 10
87.170882045935
 20
125.11866468631
 30
0.0
 11
86.987548712602
 21
126.05199801964
 31
0.0
  0
ARC
  5
290
330
18
100
AcDbEntity
  8
LEVEL001
  6
Continuous
 62
     3
370
    20
100
AcDbCircle
 10
86.842626760927
 20
128.85954782309
 30
0.0
 40
0.83333333333333
100
AcDbArc
 50
180.0
 51
233.02223081455
  0
LINE
  5
291
330
18
100
AcDbEntity
  8
LEVEL001
  6
HIDDEN
 62
     1
370
    15
100
AcDbLine
 10
87.08742736267
 20
124.38033135298
 30
0.0
 11
87.170882045935
 21
124.38033135298
 31
0.0
  0
LINE
  5
292
330
18
100
AcDbEntity
  8
LEVEL001
  6
HIDDEN
 62
     1
370
    15
100
AcDbLine
 10
87.08742736267
 20
124.38033135298
 30
0.0
 11
87.08742736267
 21
124.30199801964
 31
0.0
  0
LINE
  5
293
330
18
100
AcDbEntity
  8
LEVEL001
  6
HIDDEN
 62
     1
370
    15
100
AcDbLine
 10
87.08742736267
 20
124.66866468631
 30
0.0
 11
87.08742736267
 21
124.59033135298
 31
0.0
  0
LINE
  5
294
330
18
100
AcDbEntity
  8
LEVEL001
  6
HIDDEN
 62
     1
370
    15
100
AcDbLine
 10
87.08742736267
 20
124.59033135298
 30
0.0
 11
87.170882045935
 21
124.59033135298
 31
0.0
  0
LINE
  5
295
330
18
100
AcDbEntity
  8
LEVEL001
  6
Continuous
 62
     3
370
    20
100
AcDbLine
 10
86.004605233149
 20
129.449309158
 30
0.0
 11
86.009293427594
 21
128.85954782309
 31
0.0
  0
LINE
  5
296
330
18
100
AcDbEntity
  8
LEVEL001
  6
DOT
 62
     1
370
    15
100
AcDbLine
 10
87.054094029337
 20
124.31033135298
 30
0.0
 11
87.08742736267
 21
124.31033135298
 31
0.0
  0
LINE
  5
297
330
18
100
AcDbEntity
  8
LEVEL001
  6
DOT
 62
     1
370
    15
100
AcDbLine
 10
87.08742736267
 20
124.66033135298
 30
0.0
 11
87.08742736267
 21
124.31033135298
 31
0.0
  0
LINE
  5
298
330
18
100
AcDbEntity
  8
LEVEL001
  6
DOT
 62
     1
370
    15
100
AcDbLine
 10
87.054094029337
 20
124.66033135298
 30
0.0
 11
87.08742736267
 21
124.66033135298
 31
0.0
  0
LINE
  5
299
330
18
100
AcDbEntity
  8
LEVEL001
  6
Continuous
 62
     3
370
    20
100
AcDbLine
 10
86.954094029337
 20
124.41033135298
 30
0.0
 11
86.954094029337
 21
124.56033135298
 31
0.0
  0
LINE
  5
29A
330
18
100
AcDbEntity
  8
LEVEL001
  6
Continuous
 62
     3
370
    20
100
AcDbLine
 10
87.170882045935
 20
124.10199801964
 30
0.0
 11
87.170882045935
 21
125.11866468631
 31
0.0
  0
ARC
  5
29B
330
18
100
AcDbEntity
  8
LEVEL001
  6
Continuous
 62
     3
370
    20
100
AcDbCircle
 10
87.989463019801
 20
125.0240375407
 30
0.0
 40
2.0
100
AcDbArc
 50
142.92793628941
 51
187.12650048794
  0
LINE
  5
29C
330
18
100
AcDbEntity
  8
LEVEL001
  6
HIDDEN
 62
     1
370
    15
100
AcDbLine
 10
87.08742736267
 20
129.85699801964
 30
0.0
 11
87.170882045935
 21
129.85699801964
 31
0.0
  0
LINE
  5
29D
330
18
100
AcDbEntity
  8
LEVEL001
  6
HIDDEN
 62
     1
370
    15
100
AcDbLine
 10
87.08742736267
 20
129.85699801964
 30
0.0
 11
87.08742736267
 21
129.93533135298
 31
0.0
  0
LINE
  5
29E
330
18
100
AcDbEntity
  8
LEVEL001
  6
HIDDEN
 62
     1
370
    15
100
AcDbLine
 10
87.08742736267
 20
129.56866468631
 30
0.0
 11
87.08742736267
 21
129.64699801964
 31
0.0
  0
LINE
  5
29F
330
18
100
AcDbEntity
  8
LEVEL001
  6
HIDDEN
 62
     1
370
    15
100
AcDbLine
 10
87.08742736267
 20
129.64699801964
 30
0.0
 11
87.170882045935
 21
129.64699801964
 31
0.0
  0
LINE
  5
2A0
330
18
100
AcDbEntity
  8
LEVEL001
  6
DOT
 62
     1
370
    15
100
AcDbLine
 10
87.054094029337
 20
129.92699801964
 30
0.0
 11
87.08742736267
 21
129.92699801964
 31
0.0
  0
LINE
  5
2A1
330
18
100
AcDbEntity
  8
LEVEL001
  6
DOT
 62
     1
370
    15
100
AcDbLine
 10
87.08742736267
 20
129.57699801964
 30
0.0
 11
87.08742736267
 21
129.92699801964
 31
0.0
  0
LINE
  5
2A2
330
18
100
AcDbEntity
  8
LEVEL001
  6
DOT
 62
     1
370
    15
100
AcDbLine
 10
87.054094029337
 20
129.57699801964
 30
0.0
 11
87.08742736267
 21
129.57699801964
 31
0.0
  0
LINE
  5
2A3
330
18
100
AcDbEntity
  8
LEVEL001
  6
Continuous
 62
     3
370
    20
100
AcDbLine
 10
86.954094029337
 20
129.82699801964
 30
0.0
 11
86.954094029337
 21
129.67699801964
 31
0.0
  0
LINE
  5
2A4
330
18
100
AcDbEntity
  8
LEVEL001
  6
Continuous
 62
     3
370
    20
100
AcDbLine
 10
87.170882045936
 20
130.13533135298
 30
0.0
 11
87.170882045935
 21
129.11866468631
 31
0.0
  0
LWPOLYLINE
  5
2A5
330
18
100
AcDbEntity
  8
LEVEL001
  6
Continuous
 62
     3
370
    20
100
AcDbPolyline
 90
       65
 70
     0
 43
0.0
 10
85.862895883525
 20
129.2903857014
 10
85.859544798362
 20
129.21448047811
 10
85.856205142726
 20
129.13863814094
 10
85.852888346146
 20
129.062921576
 10
85.849605838151
 20
128.9873936694
 10
85.846369048268
 20
128.91211730726
 10
85.843189406025
 20
128.83715537568
 10
85.840078340951
 20
128.76257076079
 10
85.837047282574
 20
128.68842634869
 10
85.834107660423
 20
128.61478502551
 10
85.831270904024
 20
128.54170967735
 10
85.828548442907
 20
128.46926319033
 10
85.8259517066
 20
128.39750845057
 10
85.823492124631
 20
128.32650834417
 10
85.821181126528
 20
128.25632575725
 10
85.81903014182
 20
128.18702357592
 10
85.817050600033
 20
128.11866468631
 10
85.815250670425
 20
128.05129101248
 10
85.813625481159
 20
127.98486063036
 10
85.812166900124
 20
127.91931065383
 10
85.810866795211
 20
127.85457819679
 10
85.809717034312
 20
127.79060037311
 10
85.808709485315
 20
127.72731429669
 10
85.807836016113
 20
127.6646570814
 10
85.807088494595
 20
127.60256584114
 10
85.806458788651
 20
127.5409776898
 10
85.805938766173
 20
127.47982974125
 10
85.805520295051
 20
127.41905910938
 10
85.805195243174
 20
127.35860290808
 10
85.804955478435
 20
127.29839825124
 10
85.804792868722
 20
127.23838225274
 10
85.804699281927
 20
127.17849202647
 10
85.80466658594
 20
127.11866468631
 10
85.804689357591
 20
127.05883734615
 10
85.804773009462
 20
126.99894711988
 10
85.804925663076
 20
126.93893112138
 10
85.805155439955
 20
126.87872646454
 10
85.805470461623
 20
126.81827026324
 10
85.805878849601
 20
126.75749963137
 10
85.806388725412
 20
126.69635168282
 10
85.807008210577
 20
126.63476353147
 10
85.80774542662
 20
126.57267229122
 10
85.808608495063
 20
126.51001507593
 10
85.809605537427
 20
126.44672899951
 10
85.810744675237
 20
126.38275117583
 10
85.812034030013
 20
126.31801871878
 10
85.813481723278
 20
126.25246874226
 10
85.815095876555
 20
126.18603836014
 10
85.816884611366
 20
126.11866468631
 10
85.818852792489
 20
126.0503057967
 10
85.820992257728
 20
125.98100361537
 10
85.823291588141
 20
125.91082102846
 10
85.825739364788
 20
125.83982092206
 10
85.828324168726
 20
125.76806618229
 10
85.831034581016
 20
125.69561969527
 10
85.833859182717
 20
125.62254434712
 10
85.836786554886
 20
125.54890302393
 10
85.839805278584
 20
125.47475861184
 10
85.842903934868
 20
125.40017399695
 10
85.846071104799
 20
125.32521206537
 10
85.849295369436
 20
125.24993570323
 10
85.852565309836
 20
125.17440779663
 10
85.855869507059
 20
125.09869123168
 10
85.859196542164
 20
125.02284889451
 10
85.862534996211
 20
124.94694367123
  0
LWPOLYLINE
  5
2A6
330
18
100
AcDbEntity
  8
LEVEL001
  6
Continuous
 62
     3
370
    20
100
AcDbPolyline
 90
       65
 70
     0
 43
0.0
 10
85.995778010187
 20
129.2903857014
 10
85.99243325485
 20
129.21435889824
 10
85.989099780103
 20
129.13839784189
 10
85.985788866539
 20
129.06256827918
 10
85.982511794747
 20
128.98693595692
 10
85.979279845319
 20
128.91156662192
 10
85.976104298847
 20
128.83652602101
 10
85.97299643592
 20
128.761879901
 10
85.969967537131
 20
128.68769400871
 10
85.96702888307
 20
128.61403409096
 10
85.964191754329
 20
128.54096589456
 10
85.961467431499
 20
128.46855516633
 10
85.95886719517
 20
128.39686765308
 10
85.956402325934
 20
128.32596910164
 10
85.954084104383
 20
128.25592525882
 10
85.951923811106
 20
128.18680187144
 10
85.949932726695
 20
128.11866468631
 10
85.948119020406
 20
128.05155562751
 10
85.946478416151
 20
127.98542132816
 10
85.945003526505
 20
127.92018459861
 10
85.943686964044
 20
127.85576824925
 10
85.942521341344
 20
127.79209509045
 10
85.941499270982
 20
127.72908793257
 10
85.940613365532
 20
127.66666958599
 10
85.939856237572
 20
127.60476286108
 10
85.939220499676
 20
127.5432905682
 10
85.938698764422
 20
127.48217551774
 10
85.938283644384
 20
127.42134052005
 10
85.937967752138
 20
127.36070838552
 10
85.937743700262
 20
127.30020192451
 10
85.937604101329
 20
127.23974394739
 10
85.937541567917
 20
127.17925726453
 10
85.937548712602
 20
127.11866468631
 10
85.937620261149
 20
127.05790046591
 10
85.937759392086
 20
126.99694462775
 10
85.93797139713
 20
126.93578863909
 10
85.938261568
 20
126.87442396717
 10
85.938635196412
 20
126.81284207922
 10
85.939097574085
 20
126.7510344425
 10
85.939653992736
 20
126.68899252425
 10
85.940309744083
 20
126.62670779172
 10
85.941070119843
 20
126.56417171213
 10
85.941940411735
 20
126.50137575275
 10
85.942925911475
 20
126.43831138081
 10
85.944031910782
 20
126.37497006356
 10
85.945263701373
 20
126.31134326824
 10
85.946626574966
 20
126.2474224621
 10
85.948125823278
 20
126.18319911237
 10
85.949766738028
 20
126.11866468631
 10
85.951552198165
 20
126.05381540254
 10
85.953475431573
 20
125.98866648525
 10
85.955527253366
 20
125.92323791
 10
85.95769847866
 20
125.85754965236
 10
85.95997992257
 20
125.7916216879
 10
85.962362400212
 20
125.7254739922
 10
85.964836726701
 20
125.6591265408
 10
85.967393717151
 20
125.5925993093
 10
85.970024186679
 20
125.52591227324
 10
85.9727189504
 20
125.45908540821
 10
85.975468823429
 20
125.39213868977
 10
85.978264620882
 20
125.32509209348
 10
85.981097157873
 20
125.25796559493
 10
85.983957249518
 20
125.19077916967
 10
85.986835710932
 20
125.12355279327
 10
85.989723357232
 20
125.0563064413
  0
POINT
  5
2A7
330
18
100
AcDbEntity
  8
LEVEL001
 62
     2
100
AcDbPoint
 10
87.170882045935
 20
127.11866468631
 30
0.0
  0
ARC
  5
2A8
330
18
100
AcDbEntity
  8
LEVEL001
  6
Continuous
 62
     3
370
    20
100
AcDbCircle
 10
85.938389773149
 20
124.78027700456
 30
0.0
 40
0.066666666666667
100
AcDbArc
 50
189.81802439687
 51
356.24988759822
  0
ARC
  5
2A9
330
18
100
AcDbEntity
  8
LEVEL001
  6
Continuous
 62
     3
370
    20
100
AcDbCircle
 10
85.938389773154
 20
129.45705236806
 30
0.0
 40
0.066666666666667
100
AcDbArc
 50
353.33014694059
 51
170.18197560304
  0
LWPOLYLINE
  5
2AA
330
18
100
AcDbEntity
  8
LEVEL001
  6
Continuous
 62
     3
370
    20
100
AcDbPolyline
 90
      161
 70
     0
 43
0.0
 10
85.872699486196
 20
129.46842033375
 10
85.869561450381
 20
129.44906683121
 10
85.866417272953
 20
129.42965435865
 10
85.863260812297
 20
129.41012394607
 10
85.860085926802
 20
129.39041662347
 10
85.856886474855
 20
129.37047342082
 10
85.853656314842
 20
129.35023536812
 10
85.850389305152
 20
129.32964349537
 10
85.84707930417
 20
129.30863883255
 10
85.843720170285
 20
129.28716240965
 10
85.840305761883
 20
129.26515525666
 10
85.836829937351
 20
129.24255840357
 10
85.833286555077
 20
129.21931288037
 10
85.829669473447
 20
129.19535971706
 10
85.82597255085
 20
129.17063994362
 10
85.822189645671
 20
129.14509459004
 10
85.818314616299
 20
129.11866468631
 10
85.814344737083
 20
129.09131355169
 10
85.810290946231
 20
129.06309366246
 10
85.806167597912
 20
129.03407978417
 10
85.801989046295
 20
129.00434668237
 10
85.79776964555
 20
128.9739691226
 10
85.793523749845
 20
128.94302187042
 10
85.789265713352
 20
128.91157969137
 10
85.785009890238
 20
128.879717351
 10
85.780770634674
 20
128.84750961486
 10
85.77656230083
 20
128.81503124849
 10
85.772399242874
 20
128.78235701745
 10
85.768295814975
 20
128.74956168729
 10
85.764266371305
 20
128.71672002354
 10
85.760325266031
 20
128.68390679176
 10
85.756486853324
 20
128.6511967575
 10
85.752765487353
 20
128.61866468631
 10
85.749172282873
 20
128.58636954819
 10
85.745705396977
 20
128.554307131
 10
85.742359747345
 20
128.52245742706
 10
85.739130251658
 20
128.49080042869
 10
85.736011827595
 20
128.45931612821
 10
85.732999392835
 20
128.42798451793
 10
85.730087865058
 20
128.39678559017
 10
85.727272161944
 20
128.36569933725
 10
85.724547201173
 20
128.33470575149
 10
85.721907900424
 20
128.3037848252
 10
85.719349177376
 20
128.27291655071
 10
85.71686594971
 20
128.24208092033
 10
85.714453135105
 20
128.21125792639
 10
85.71210565124
 20
128.18042756119
 10
85.709818415796
 20
128.14956981706
 10
85.707586346453
 20
128.11866468631
 10
85.705405515065
 20
128.08769637341
 10
85.7032766102
 20
128.05666593139
 10
85.701201474598
 20
128.02557862544
 10
85.699181951
 20
127.99443972072
 10
85.69721988215
 20
127.96325448243
 10
85.695317110787
 20
127.93202817574
 10
85.693475479655
 20
127.90076606583
 10
85.691696831494
 20
127.86947341787
 10
85.689983009047
 20
127.83815549706
 10
85.688335855055
 20
127.80681756856
 10
85.686757212259
 20
127.77546489756
 10
85.685248923402
 20
127.74410274924
 10
85.683812831226
 20
127.71273638877
 10
85.682450778471
 20
127.68137108134
 10
85.681164607879
 20
127.65001209213
 10
85.679956162193
 20
127.61866468631
 10
85.678826841466
 20
127.58733307603
 10
85.677776275
 20
127.55601726129
 10
85.676803649409
 20
127.52471618905
 10
85.675908151309
 20
127.49342880627
 10
85.675088967312
 20
127.46215405993
 10
85.674345284035
 20
127.43089089698
 10
85.67367628809
 20
127.39963826439
 10
85.673081166092
 20
127.36839510912
 10
85.672559104656
 20
127.33716037814
 10
85.672109290396
 20
127.30593301841
 10
85.671730909926
 20
127.2747119769
 10
85.671423149861
 20
127.24349620057
 10
85.671185196816
 20
127.21228463638
 10
85.671016237403
 20
127.1810762313
 10
85.670915458238
 20
127.14986993228
 10
85.670882045935
 20
127.11866468631
 10
85.670915458238
 20
127.08745944034
 10
85.671016237402
 20
127.05625314132
 10
85.671185196814
 20
127.02504473624
 10
85.67142314986
 20
126.99383317205
 10
85.671730909925
 20
126.96261739572
 10
85.672109290394
 20
126.93139635421
 10
85.672559104654
 20
126.90016899448
 10
85.67308116609
 20
126.8689342635
 10
85.673676288087
 20
126.83769110823
 10
85.674345284032
 20
126.80643847564
 10
85.67508896731
 20
126.77517531269
 10
85.675908151307
 20
126.74390056635
 10
85.676803649408
 20
126.71261318358
 10
85.677776274998
 20
126.68131211133
 10
85.678826841465
 20
126.64999629659
 10
85.679956162192
 20
126.61866468631
 10
85.681164607879
 20
126.58731728049
 10
85.682450778471
 20
126.55595829128
 10
85.683812831226
 20
126.52459298385
 10
85.685248923403
 20
126.49322662338
 10
85.68675721226
 20
126.46186447506
 10
85.688335855055
 20
126.43051180406
 10
85.689983009047
 20
126.39917387556
 10
85.691696831495
 20
126.36785595475
 10
85.693475479655
 20
126.33656330679
 10
85.695317110787
 20
126.30530119688
 10
85.697219882149
 20
126.27407489019
 10
85.699181950999
 20
126.2428896519
 10
85.701201474596
 20
126.21175074718
 10
85.703276610198
 20
126.18066344123
 10
85.705405515062
 20
126.14963299921
 10
85.707586346449
 20
126.11866468631
 10
85.709818415792
 20
126.08775955556
 10
85.712105651235
 20
126.05690181143
 10
85.714453135098
 20
126.02607144623
 10
85.716865949703
 20
125.99524845229
 10
85.719349177368
 20
125.96441282191
 10
85.721907900415
 20
125.93354454742
 10
85.724547201164
 20
125.90262362113
 10
85.727272161936
 20
125.87163003537
 10
85.73008786505
 20
125.84054378245
 10
85.732999392827
 20
125.8093448547
 10
85.736011827587
 20
125.77801324441
 10
85.739130251651
 20
125.74652894393
 10
85.742359747339
 20
125.71487194556
 10
85.745705396971
 20
125.68302224162
 10
85.749172282868
 20
125.65095982443
 10
85.752765487351
 20
125.61866468631
 10
85.756486853323
 20
125.58613261512
 10
85.760325266032
 20
125.55342258086
 10
85.764266371307
 20
125.52060934908
 10
85.768295814979
 20
125.48776768533
 10
85.772399242879
 20
125.45497235516
 10
85.776562300836
 20
125.42229812412
 10
85.780770634682
 20
125.38981975776
 10
85.785009890247
 20
125.35761202162
 10
85.78926571336
 20
125.32574968125
 10
85.793523749854
 20
125.2943075022
 10
85.797769645558
 20
125.26336025002
 10
85.801989046303
 20
125.23298269025
 10
85.806167597919
 20
125.20324958845
 10
85.810290946237
 20
125.17423571016
 10
85.814344737087
 20
125.14601582093
 10
85.8183146163
 20
125.11866468631
 10
85.82218964567
 20
125.09223478259
 10
85.825972550846
 20
125.06668942901
 10
85.829669473441
 20
125.04196965557
 10
85.833286555068
 20
125.01801649226
 10
85.83682993734
 20
124.99477096906
 10
85.84030576187
 20
124.97217411597
 10
85.84372017027
 20
124.95016696298
 10
85.847079304155
 20
124.92869054008
 10
85.850389305136
 20
124.90768587726
 10
85.853656314826
 20
124.8870940045
 10
85.856886474839
 20
124.86685595181
 10
85.860085926787
 20
124.84691274916
 10
85.863260812284
 20
124.82720542655
 10
85.866417272941
 20
124.80767501398
 10
85.869561450373
 20
124.78826254142
 10
85.872699486192
 20
124.76890903887
  0
ARC
  5
2AB
330
18
100
AcDbEntity
  8
LEVEL001
  6
Continuous
 62
     3
370
    20
100
AcDbCircle
 10
86.50009085338
 20
126.14929972986
 30
0.0
 40
0.13333333333333
100
AcDbArc
 50
21.93680184850299
 51
142.9279362894
  0
LINE
  5
2AC
330
18
100
AcDbEntity
  8
LEVEL001
  6
Continuous
 62
     3
370
    20
100
AcDbLine
 10
86.66386499177
 20
128.14060267244
 30
0.0
 11
86.612548712602
 21
127.28533135298
 31
0.0
  0
LINE
  5
2AD
330
18
100
AcDbEntity
  8
LEVEL001
  6
HIDDEN
 62
     1
370
    15
100
AcDbLine
 10
87.03269815262
 20
129.93533135298
 30
0.0
 11
87.08742736267
 21
129.93533135298
 31
0.0
  0
ARC
  5
2AE
330
18
100
AcDbEntity
  8
LEVEL001
  6
DOT
 62
     1
370
    15
100
AcDbCircle
 10
87.054094029336
 20
129.82699801964
 30
0.0
 40
0.1
100
AcDbArc
 50
89.99999999966099
 51
102.62388350068
  0
ARC
  5
2AF
330
18
100
AcDbEntity
  8
LEVEL001
  6
DOT
 62
     1
370
    15
100
AcDbCircle
 10
87.054094029339
 20
129.67699801964
 30
0.0
 40
0.1
100
AcDbArc
 50
242.3084731651
 51
269.99999999866
  0
LINE
  5
2B0
330
18
100
AcDbEntity
  8
LEVEL001
  6
HIDDEN
 62
     1
370
    15
100
AcDbLine
 10
87.005551092549
 20
129.56866468631
 30
0.0
 11
87.08742736267
 21
129.56866468631
 31
0.0
  0
ARC
  5
2B1
330
18
100
AcDbEntity
  8
LEVEL001
  6
Continuous
 62
     3
370
    20
100
AcDbCircle
 10
87.054094029337
 20
129.67699801964
 30
0.0
 40
0.1
100
AcDbArc
 50
180.0000000006
 51
242.3084731666
  0
ARC
  5
2B2
330
18
100
AcDbEntity
  8
LEVEL001
  6
Continuous
 62
     3
370
    20
100
AcDbCircle
 10
87.054094029337
 20
129.82699801964
 30
0.0
 40
0.1
100
AcDbArc
 50
102.62388350102
 51
180.00000000011
  0
LINE
  5
2B3
330
18
100
AcDbEntity
  8
LEVEL001
  6
HIDDEN
 62
     1
370
    15
100
AcDbLine
 10
87.005551092549
 20
124.66866468631
 30
0.0
 11
87.08742736267
 21
124.66866468631
 31
0.0
  0
ARC
  5
2B4
330
18
100
AcDbEntity
  8
LEVEL001
  6
DOT
 62
     1
370
    15
100
AcDbCircle
 10
87.054094029339
 20
124.56033135298
 30
0.0
 40
0.1
100
AcDbArc
 50
90.000000001311
 51
117.69152683486
  0
ARC
  5
2B5
330
18
100
AcDbEntity
  8
LEVEL001
  6
DOT
 62
     1
370
    15
100
AcDbCircle
 10
87.054094029336
 20
124.41033135298
 30
0.0
 40
0.1
100
AcDbArc
 50
257.37611649929
 51
270.00000000035
  0
LINE
  5
2B6
330
18
100
AcDbEntity
  8
LEVEL001
  6
HIDDEN
 62
     1
370
    15
100
AcDbLine
 10
87.03269815262
 20
124.30199801964
 30
0.0
 11
87.08742736267
 21
124.30199801964
 31
0.0
  0
ARC
  5
2B7
330
18
100
AcDbEntity
  8
LEVEL001
  6
Continuous
 62
     3
370
    20
100
AcDbCircle
 10
87.054094029337
 20
124.41033135298
 30
0.0
 40
0.1
100
AcDbArc
 50
179.99999999992
 51
257.37611649899
  0
ARC
  5
2B8
330
18
100
AcDbEntity
  8
LEVEL001
  6
Continuous
 62
     3
370
    20
100
AcDbCircle
 10
87.054094029337
 20
124.56033135298
 30
0.0
 40
0.1
100
AcDbArc
 50
117.6915268334
 51
179.99999999941
  0
ARC
  5
2B9
330
18
100
AcDbEntity
  8
LEVEL001
  6
Continuous
 62
     3
370
    20
100
AcDbCircle
 10
81.321010465076
 20
130.17387178506
 30
0.0
 40
5.7166666666667
100
AcDbArc
 50
339.16524836755
 51
359.6181751394
  0
ARC
  5
2BA
330
18
100
AcDbEntity
  8
LEVEL001
  6
Continuous
 62
     3
370
    20
100
AcDbCircle
 10
81.321010465076
 20
124.06345758756
 30
0.0
 40
5.7166666666667
100
AcDbArc
 50
0.3818248606025301
 51
21.936801848487
  0
ARC
  5
2BB
330
18
100
AcDbEntity
  8
LEVEL001
  6
Continuous
 62
     3
370
    20
100
AcDbCircle
 10
87.104215379269
 20
124.10199801964
 30
0.0
 40
0.066666666666667
100
AcDbArc
 50
269.9999999999599
 51
0.0
  0
ARC
  5
2BC
330
18
100
AcDbEntity
  8
LEVEL001
  6
Continuous
 62
     3
370
    20
100
AcDbCircle
 10
87.104215379269
 20
124.10199801964
 30
0.0
 40
0.066666666666667
100
AcDbArc
 50
180.38182486089
 51
270.0
  0
ARC
  5
2BD
330
18
100
AcDbEntity
  8
LEVEL001
  6
Continuous
 62
     3
370
    20
100
AcDbCircle
 10
87.104215379269
 20
130.13533135298
 30
0.0
 40
0.066666666666667
100
AcDbArc
 50
0.0000000002996337
 51
90.000000000039
  0
ARC
  5
2BE
330
18
100
AcDbEntity
  8
LEVEL001
  6
Continuous
 62
     3
370
    20
100
AcDbCircle
 10
87.104215379269
 20
130.13533135298
 30
0.0
 40
0.066666666666667
100
AcDbArc
 50
90.0
 51
179.61817513909
  0
LWPOLYLINE
  5
2BF
330
18
100
AcDbEntity
  8
LEVEL001
  6
DOT
 62
     1
370
    15
100
AcDbPolyline
 90
        4
 70
     0
 43
0.0
 10
87.08742736267
 20
124.38533135298
 10
87.620760696004
 20
124.38533135298
 10
87.620760696004
 20
124.58533135298
 10
87.087427362666
 20
124.58533135298
  0
LINE
  5
2C0
330
18
100
AcDbEntity
  8
LEVEL001
  6
DASHDOT
 62
     1
370
    15
100
AcDbLine
 10
86.868087663002
 20
124.48533135298
 30
0.0
 11
87.708889736826
 21
124.48533135298
 31
0.0
  0
LWPOLYLINE
  5
2C1
330
18
100
AcDbEntity
  8
LEVEL001
  6
DOT
 62
     1
370
    15
100
AcDbPolyline
 90
        4
 70
     0
 43
0.0
 10
87.08742736267
 20
129.85199801964
 10
87.620760696004
 20
129.85199801964
 10
87.620760696004
 20
129.65199801964
 10
87.087427362666
 20
129.65199801964
  0
LINE
  5
2C2
330
18
100
AcDbEntity
  8
LEVEL001
  6
DASHDOT
 62
     1
370
    15
100
AcDbLine
 10
86.868087663002
 20
129.75199801964
 30
0.0
 11
87.708889736826
 21
129.75199801964
 31
0.0
  0
LINE
  5
2C3
330
18
100
AcDbEntity
  8
LEVEL001
  6
DASHDOT
 62
     1
370
    15
100
AcDbLine
 10
85.324141446799
 20
127.11866468631
 30
0.0
 11
90.490085998984
 21
127.11866468631
 31
0.0
  0
LINE
  5
2C4
330
18
100
AcDbEntity
  8
LEVEL001
  6
Continuous
 62
     1
370
    15
100
AcDbLine
 10
83.670882045935
 20
127.11866468631
 30
0.0
 11
62.085688888395
 21
127.11866468631
 31
0.0
  0
LINE
  5
2C5
330
18
100
AcDbEntity
  8
LEVEL001
  6
Continuous
 62
     1
370
    15
100
AcDbLine
 10
80.004215379269
 20
88.785331352977
 30
0.0
 11
62.085688888395
 21
88.785331352977
 31
0.0
  0
LINE
  5
2C6
330
18
100
AcDbEntity
  8
LEVEL001
  6
Continuous
 62
     1
370
    15
100
AcDbLine
 10
64.085688888395
 20
127.11866468631
 30
0.0
 11
64.085688888395
 21
107.95199801964
 31
0.0
  0
LINE
  5
2C7
330
18
100
AcDbEntity
  8
LEVEL001
  6
Continuous
 62
     1
370
    15
100
AcDbLine
 10
64.085688888395
 20
88.785331352977
 30
0.0
 11
64.085688888395
 21
107.95199801964
 31
0.0
  0
LINE
  5
2C8
330
18
100
AcDbEntity
  8
LEVEL001
  6
Continuous
 62
     1
370
    15
100
AcDbLine
 10
64.085688888395
 20
127.11866468631
 30
0.0
 11
63.281841311101
 21
124.11866468631
 31
0.0
  0
LINE
  5
2C9
330
18
100
AcDbEntity
  8
LEVEL001
  6
Continuous
 62
     1
370
    15
100
AcDbLine
 10
64.085688888395
 20
127.11866468631
 30
0.0
 11
64.889536465688
 21
124.11866468631
 31
0.0
  0
LINE
  5
2CA
330
18
100
AcDbEntity
  8
LEVEL001
  6
Continuous
 62
     1
370
    15
100
AcDbLine
 10
64.085688888395
 20
88.785331352977
 30
0.0
 11
64.889536465688
 21
91.785331352977
 31
0.0
  0
LINE
  5
2CB
330
18
100
AcDbEntity
  8
LEVEL001
  6
Continuous
 62
     1
370
    15
100
AcDbLine
 10
64.085688888395
 20
88.785331352977
 30
0.0
 11
63.281841311101
 21
91.785331352977
 31
0.0
  0
MTEXT
  5
2CC
330
18
100
AcDbEntity
  8
LEVEL001
 62
     3
370
    20
100
AcDbMText
 10
62.371403174109
 20
107.95199801964
 30
0.0
 40
4.0
 41
0.0
 71
     8
 72
     1
  1
\A1;1150
 11
0.0
 21
1.0
 31
0.0
 73
     1
 44
1.0
  0
LINE
  5
2CD
330
18
100
AcDbEntity
  8
LEVEL001
  6
Continuous
 62
     1
370
    15
100
AcDbLine
 10
85.670882045935
 20
127.11866468631
 30
0.0
 11
77.799899817238
 21
136.38593349448
 31
0.0
  0
CIRCLE
  5
2CE
330
18
100
AcDbEntity
  8
LEVEL001
  6
Continuous
 62
     1
370
    15
100
AcDbCircle
 10
75.21048976107
 20
139.43469645034
 30
0.0
 40
4.0
  0
LINE
  5
2CF
330
18
100
AcDbEntity
  8
LEVEL001
  6
Continuous
 62
     1
370
    15
100
AcDbLine
 10
85.670882045935
 20
127.11866468631
 30
0.0
 11
84.341509682762
 21
129.92560965327
 31
0.0
  0
LINE
  5
2D0
330
18
100
AcDbEntity
  8
LEVEL001
  6
Continuous
 62
     1
370
    15
100
AcDbLine
 10
85.670882045935
 20
127.11866468631
 30
0.0
 11
83.116139324857
 21
128.88486415314
 31
0.0
  0
MTEXT
  5
2D1
330
18
100
AcDbEntity
  8
LEVEL001
 62
     3
370
    20
100
AcDbMText
 10
72.382062636324
 20
136.60626932559
 30
0.0
 40
5.6568542494924
 41
0.0
 71
     7
 72
     1
  1
\A1;４
 73
     1
 44
1.0
  0
LINE
  5
2D2
330
18
100
AcDbEntity
  8
LEVEL001
  6
Continuous
 62
     3
370
    20
100
AcDbLine
 10
92.404215379269
 20
88.785331352977
 30
0.0
 11
88.670882045935
 21
88.785331352977
 31
0.0
  0
LINE
  5
2D3
330
18
100
AcDbEntity
  8
LEVEL001
  6
Continuous
 62
     3
370
    20
100
AcDbLine
 10
88.670882045935
 20
88.785331352977
 30
0.0
 11
84.937548712602
 21
88.785331352977
 31
0.0
  0
LINE
  5
2D4
330
18
100
AcDbEntity
  8
LEVEL001
  6
Continuous
 62
     3
370
    20
100
AcDbLine
 10
87.420882045935
 20
222.11866468631
 30
0.0
 11
89.920882045935
 21
222.11866468631
 31
0.0
  0
LINE
  5
2D5
330
18
100
AcDbEntity
  8
LEVEL001
  6
Continuous
 62
     3
370
    20
100
AcDbLine
 10
87.062548712602
 20
222.51904969842
 30
0.0
 11
87.062548712602
 21
220.20199801964
 31
0.0
  0
LINE
  5
2D6
330
18
100
AcDbEntity
  8
LEVEL001
  6
Continuous
 62
     3
370
    20
100
AcDbLine
 10
87.329215379269
 20
222.46351953729
 30
0.0
 11
87.329215379269
 21
220.20199801964
 31
0.0
  0
LINE
  5
2D7
330
18
100
AcDbEntity
  8
LEVEL001
  6
Continuous
 62
     3
370
    20
100
AcDbLine
 10
86.212548712602
 20
223.13098559362
 30
0.0
 11
86.212548712602
 21
220.20199801964
 31
0.0
  0
LINE
  5
2D8
330
18
100
AcDbEntity
  8
LEVEL001
  6
Continuous
 62
     3
370
    20
100
AcDbLine
 10
86.479215379269
 20
222.83753082966
 30
0.0
 11
86.479215379269
 21
220.20199801964
 31
0.0
  0
ARC
  5
2D9
330
18
100
AcDbEntity
  8
LEVEL001
  6
Continuous
 62
     3
370
    20
100
AcDbCircle
 10
86.279215379269
 20
220.31746807348
 30
0.0
 40
0.13333333333333
100
AcDbArc
 50
240.00000000001
 51
299.99999999999
  0
ARC
  5
2DA
330
18
100
AcDbEntity
  8
LEVEL001
  6
Continuous
 62
     3
370
    20
100
AcDbCircle
 10
86.412548712602
 20
220.31746807348
 30
0.0
 40
0.13333333333335
100
AcDbArc
 50
240.00000000001
 51
299.99999999999
  0
ARC
  5
2DB
330
18
100
AcDbEntity
  8
LEVEL001
  6
Continuous
 62
     3
370
    20
100
AcDbCircle
 10
86.412548712602
 20
220.08652796581
 30
0.0
 40
0.13333333333335
100
AcDbArc
 50
59.999999999996
 51
120.0
  0
ARC
  5
2DC
330
18
100
AcDbEntity
  8
LEVEL001
  6
Continuous
 62
     3
370
    20
100
AcDbCircle
 10
87.129215379269
 20
220.31746807348
 30
0.0
 40
0.13333333333333
100
AcDbArc
 50
240.0
 51
300.0
  0
ARC
  5
2DD
330
18
100
AcDbEntity
  8
LEVEL001
  6
Continuous
 62
     3
370
    20
100
AcDbCircle
 10
87.262548712602
 20
220.31746807348
 30
0.0
 40
0.13333333333335
100
AcDbArc
 50
240.0
 51
299.99999999999
  0
ARC
  5
2DE
330
18
100
AcDbEntity
  8
LEVEL001
  6
Continuous
 62
     3
370
    20
100
AcDbCircle
 10
87.262548712602
 20
220.08652796581
 30
0.0
 40
0.13333333333335
100
AcDbArc
 50
59.999999999996
 51
120.00000000001
  0
ARC
  5
2DF
330
18
100
AcDbEntity
  8
LEVEL001
  6
Continuous
 62
     3
370
    20
100
AcDbCircle
 10
89.820882045935
 20
224.05199801964
 30
0.0
 40
1.6
100
AcDbArc
 50
270.0
 51
0.0
  0
LINE
  5
2E0
330
18
100
AcDbEntity
  8
LEVEL001
  6
Continuous
 62
     3
370
    20
100
AcDbLine
 10
91.420882045935
 20
224.05199801964
 30
0.0
 11
91.367548712602
 21
224.05199801964
 31
0.0
  0
LINE
  5
2E1
330
18
100
AcDbEntity
  8
LEVEL001
  6
Continuous
 62
     3
370
    20
100
AcDbLine
 10
91.367548712602
 20
224.05199801964
 30
0.0
 11
88.670882045935
 21
224.05199801964
 31
0.0
  0
LINE
  5
2E2
330
18
100
AcDbEntity
  8
LEVEL001
  6
Continuous
 62
     3
370
    20
100
AcDbLine
 10
89.820882045935
 20
222.45199801964
 30
0.0
 11
88.670882045935
 21
222.45199801964
 31
0.0
  0
ARC
  5
2E3
330
18
100
AcDbEntity
  8
LEVEL001
  6
Continuous
 62
     3
370
    20
100
AcDbCircle
 10
87.520882045935
 20
224.05199801964
 30
0.0
 40
1.6
100
AcDbArc
 50
180.0
 51
270.0
  0
LINE
  5
2E4
330
18
100
AcDbEntity
  8
LEVEL001
  6
Continuous
 62
     3
370
    20
100
AcDbLine
 10
85.920882045935
 20
224.05199801964
 30
0.0
 11
85.974215379269
 21
224.05199801964
 31
0.0
  0
LINE
  5
2E5
330
18
100
AcDbEntity
  8
LEVEL001
  6
Continuous
 62
     3
370
    20
100
AcDbLine
 10
85.974215379269
 20
224.05199801964
 30
0.0
 11
88.670882045935
 21
224.05199801964
 31
0.0
  0
LINE
  5
2E6
330
18
100
AcDbEntity
  8
LEVEL001
  6
Continuous
 62
     3
370
    20
100
AcDbLine
 10
87.520882045935
 20
222.45199801964
 30
0.0
 11
88.670882045935
 21
222.45199801964
 31
0.0
  0
CIRCLE
  5
2E7
330
18
100
AcDbEntity
  8
LEVEL001
  6
Continuous
 62
     3
370
    20
100
AcDbCircle
 10
88.670882045935
 20
224.30237279802
 30
0.0
 40
0.083333333333333
  0
LINE
  5
2E8
330
18
100
AcDbEntity
  8
LEVEL001
  6
Continuous
 62
     3
370
    20
100
AcDbLine
 10
85.920882045935
 20
224.05199801964
 30
0.0
 11
91.420882045935
 21
224.05199801964
 31
0.0
  0
LINE
  5
2E9
330
18
100
AcDbEntity
  8
LEVEL001
  6
Continuous
 62
     3
370
    20
100
AcDbLine
 10
91.420882045935
 20
224.05199801964
 30
0.0
 11
91.40940206819
 21
224.68022448911
 31
0.0
  0
ARC
  5
2EA
330
18
100
AcDbEntity
  8
LEVEL001
  6
Continuous
 62
     3
370
    20
100
AcDbCircle
 10
90.742846682167
 20
224.66804410295
 30
0.0
 40
0.66666666666667
100
AcDbArc
 50
1.0468853298501
 51
11.796205268407
  0
LINE
  5
2EB
330
18
100
AcDbEntity
  8
LEVEL001
  6
Continuous
 62
     3
370
    20
100
AcDbLine
 10
85.920882045935
 20
224.05199801964
 30
0.0
 11
85.932362023679
 21
224.6802244891
 31
0.0
  0
ARC
  5
2EC
330
18
100
AcDbEntity
  8
LEVEL001
  6
Continuous
 62
     3
370
    20
100
AcDbCircle
 10
86.598917409702
 20
224.66804410294
 30
0.0
 40
0.66666666666667
100
AcDbArc
 50
168.20379473184
 51
178.9531146703
  0
ARC
  5
2ED
330
18
100
AcDbEntity
  8
LEVEL001
  6
Continuous
 62
     3
370
    20
100
AcDbCircle
 10
88.670882045935
 20
224.23533135298
 30
0.0
 40
2.7833333333333
100
AcDbArc
 50
11.796205268403
 51
168.20379473184
  0
LWPOLYLINE
  5
2EE
330
18
100
AcDbEntity
  8
LEVEL001
  6
Continuous
 62
     3
370
    20
100
AcDbPolyline
 90
        4
 70
     1
 43
0.0
 10
87.437548712602
 20
222.45199801964
 10
87.437548712602
 20
222.11866468631
 10
89.904215379269
 20
222.11866468631
 10
89.904215379269
 20
222.45199801964
  0
POINT
  5
2EF
330
18
100
AcDbEntity
  8
LEVEL001
 62
     3
100
AcDbPoint
 10
88.670882045935
 20
222.11866468631
 30
0.0
  0
TEXT
  5
2F0
330
18
100
AcDbEntity
  8
LEVEL001
 62
     3
370
    20
100
AcDbText
 10
347.0
 20
282.5
 30
0.0
 40
3.0
  1
製品仕様
 72
     5
 11
359.0
 21
282.5
 31
0.0
100
AcDbText
  0
TEXT
  5
2F1
330
18
100
AcDbEntity
  8
LEVEL001
 62
     3
370
    20
100
AcDbText
 10
347.0
 20
278.5
 30
0.0
 40
3.0
  1
・主要材料はアルミニウム合金製とします。
 72
     5
 11
407.0
 21
278.5
 31
0.0
100
AcDbText
  0
TEXT
  5
2F2
330
18
100
AcDbEntity
  8
LEVEL001
 62
     3
370
    20
100
AcDbText
 10
347.0
 20
274.5
 30
0.0
 40
3.0
  1
・表面処理はヘアライン研磨後
 72
     5
 11
389.0
 21
274.5
 31
0.0
100
AcDbText
  0
TEXT
  5
2F3
330
18
100
AcDbEntity
  8
LEVEL001
 62
     3
370
    20
100
AcDbText
 10
347.0
 20
270.5
 30
0.0
 40
3.0
  1
　アクリル樹脂クリア塗装を施します。
 72
     5
 11
401.0
 21
270.5
 31
0.0
100
AcDbText
  0
TEXT
  5
2F4
330
18
100
AcDbEntity
  8
LEVEL001
 62
     3
370
    20
100
AcDbText
 10
347.0
 20
266.5
 30
0.0
 40
3.0
  1
・材質指示のないボルト類はＳＵＳ３０４
 72
     5
 11
404.0
 21
266.5
 31
0.0
100
AcDbText
  0
TEXT
  5
2F5
330
18
100
AcDbEntity
  8
LEVEL001
 62
     3
370
    20
100
AcDbText
 10
347.0
 20
262.5
 30
0.0
 40
3.0
  1
　とします。
 72
     5
 11
365.0
 21
262.5
 31
0.0
100
AcDbText
  0
TEXT
  5
2F6
330
18
100
AcDbEntity
  8
LEVEL001
 62
     3
370
    20
100
AcDbText
 10
347.0
 20
258.5
 30
0.0
 40
3.0
  1
設計条件
 72
     5
 11
359.0
 21
258.5
 31
0.0
100
AcDbText
  0
TEXT
  5
2F7
330
18
100
AcDbEntity
  8
LEVEL001
 62
     3
370
    20
100
AcDbText
 10
347.0
 20
254.5
 30
0.0
 40
3.0
  1
・基準風速と地表面粗度の許容範囲の目安は
 72
     5
 11
407.0
 21
254.5
 31
0.0
100
AcDbText
  0
TEXT
  5
2F8
330
18
100
AcDbEntity
  8
LEVEL001
 62
     3
370
    20
100
AcDbText
 10
347.0
 20
250.5
 30
0.0
 40
3.0
  1
　下表を参照願います。（旗無し時）
 72
     5
 11
398.0
 21
250.5
 31
0.0
100
AcDbText
  0
TEXT
  5
2F9
330
18
100
AcDbEntity
  8
LEVEL001
 62
     3
370
    20
100
AcDbText
 10
347.0
 20
246.5
 30
0.0
 40
3.0
  1
・基礎寸法は地盤の許容応力度が１０ｔ／㎡
 72
     5
 11
407.0
 21
246.5
 31
0.0
100
AcDbText
  0
TEXT
  5
2FA
330
18
100
AcDbEntity
  8
LEVEL001
 62
     3
370
    20
100
AcDbText
 10
347.0
 20
242.5
 30
0.0
 40
3.0
  1
　（短期）時の参考寸法です。
 72
     5
 11
389.0
 21
242.5
 31
0.0
100
AcDbText
  0
TEXT
  5
2FB
330
18
100
AcDbEntity
  8
LEVEL001
 62
     3
370
    20
100
AcDbText
 10
347.0
 20
238.5
 30
0.0
 40
3.0
  1
・地上～１５ｍ迄
 72
     5
 11
371.0
 21
238.5
 31
0.0
100
AcDbText
  0
TEXT
  5
2FC
330
18
100
AcDbEntity
  8
LEVEL001
 62
     3
370
    20
100
AcDbText
 10
347.0
 20
234.5
 30
0.0
 40
3.0
  1
    　粗度区分　I 　  II　 III　　IV
 41
0.69230769230769
 72
     5
 11
401.0
 21
234.5
 31
0.0
100
AcDbText
  0
TEXT
  5
2FD
330
18
100
AcDbEntity
  8
LEVEL001
 62
     3
370
    20
100
AcDbText
 10
347.0
 20
230.5
 30
0.0
 40
3.0
  1
　　　　３０    ○    ○    ○    ○
 41
0.69230769230769
 72
     5
 11
401.0
 21
230.5
 31
0.0
100
AcDbText
  0
TEXT
  5
2FE
330
18
100
AcDbEntity
  8
LEVEL001
 62
     3
370
    20
100
AcDbText
 10
347.0
 20
226.5
 30
0.0
 40
3.0
  1
　　　　３２    ○    ○    ○    ○
 41
0.69230769230769
 72
     5
 11
401.0
 21
226.5
 31
0.0
100
AcDbText
  0
TEXT
  5
2FF
330
18
100
AcDbEntity
  8
LEVEL001
 62
     3
370
    20
100
AcDbText
 10
347.0
 20
222.5
 30
0.0
 40
3.0
  1
　　　　３４    －    ○    ○    ○
 41
0.69230769230769
 72
     5
 11
401.0
 21
222.5
 31
0.0
100
AcDbText
  0
TEXT
  5
300
330
18
100
AcDbEntity
  8
LEVEL001
 62
     3
370
    20
100
AcDbText
 10
347.0
 20
218.5
 30
0.0
 40
3.0
  1
　　　　３６    －    ○    ○    ○
 41
0.69230769230769
 72
     5
 11
401.0
 21
218.5
 31
0.0
100
AcDbText
  0
TEXT
  5
301
330
18
100
AcDbEntity
  8
LEVEL001
 62
     3
370
    20
100
AcDbText
 10
347.0
 20
214.5
 30
0.0
 40
3.0
  1
　　　　３８    －    －    ○    ○
 41
0.69230769230769
 72
     5
 11
401.0
 21
214.5
 31
0.0
100
AcDbText
  0
TEXT
  5
302
330
18
100
AcDbEntity
  8
LEVEL001
 62
     3
370
    20
100
AcDbText
 10
347.0
 20
210.5
 30
0.0
 40
3.0
  1
　　　　４０    －    －    ○    ○
 41
0.69230769230769
 72
     5
 11
401.0
 21
210.5
 31
0.0
100
AcDbText
  0
TEXT
  5
303
330
18
100
AcDbEntity
  8
LEVEL001
 62
     3
370
    20
100
AcDbText
 10
347.0
 20
206.5
 30
0.0
 40
3.0
  1
　　　　４２    －    －    ○    ○
 41
0.69230769230769
 72
     5
 11
401.0
 21
206.5
 31
0.0
100
AcDbText
  0
TEXT
  5
304
330
18
100
AcDbEntity
  8
LEVEL001
 62
     3
370
    20
100
AcDbText
 10
347.0
 20
202.5
 30
0.0
 40
3.0
  1
　　　　４４    －    －    －    ○
 41
0.69230769230769
 72
     5
 11
401.0
 21
202.5
 31
0.0
100
AcDbText
  0
TEXT
  5
305
330
18
100
AcDbEntity
  8
LEVEL001
 62
     3
370
    20
100
AcDbText
 10
347.0
 20
198.5
 30
0.0
 40
3.0
  1
　　　　４６    －    －    －    ○
 41
0.69230769230769
 72
     5
 11
401.0
 21
198.5
 31
0.0
100
AcDbText
  0
TEXT
  5
306
330
18
100
AcDbEntity
  8
LEVEL001
 62
     3
370
    20
100
AcDbText
 10
347.0
 20
190.5
 30
0.0
 40
3.0
  1
注意事項
 72
     5
 11
359.0
 21
190.5
 31
0.0
100
AcDbText
  0
TEXT
  5
307
330
18
100
AcDbEntity
  8
LEVEL001
 62
     3
370
    20
100
AcDbText
 10
347.0
 20
186.5
 30
0.0
 40
3.0
  1
・本製品は旗を掲揚する為のポールです。
 72
     5
 11
404.0
 21
186.5
 31
0.0
100
AcDbText
  0
TEXT
  5
308
330
18
100
AcDbEntity
  8
LEVEL001
 62
     3
370
    20
100
AcDbText
 10
347.0
 20
182.5
 30
0.0
 40
3.0
  1
　旗以外のものは掲揚しないで下さい。
 72
     5
 11
401.0
 21
182.5
 31
0.0
100
AcDbText
  0
TEXT
  5
309
330
18
100
AcDbEntity
  8
LEVEL001
 62
     3
370
    20
100
AcDbText
 10
347.0
 20
178.5
 30
0.0
 40
3.0
  1
　ポール折損の要因となる場合があります。
 72
     5
 11
407.0
 21
178.5
 31
0.0
100
AcDbText
  0
TEXT
  5
30A
330
18
100
AcDbEntity
  8
LEVEL001
 62
     3
370
    20
100
AcDbText
 10
347.0
 20
174.5
 30
0.0
 40
3.0
  1
・強風時（瞬間最大風速15m/s時）には旗を
 41
0.88636363636364
 72
     5
 11
405.5
 21
174.5
 31
0.0
100
AcDbText
  0
TEXT
  5
30B
330
18
100
AcDbEntity
  8
LEVEL001
 62
     3
370
    20
100
AcDbText
 10
347.0
 20
170.5
 30
0.0
 40
3.0
  1
　取外して下さい。ポール折損の要因となる
 72
     5
 11
407.0
 21
170.5
 31
0.0
100
AcDbText
  0
TEXT
  5
30C
330
18
100
AcDbEntity
  8
LEVEL001
 62
     3
370
    20
100
AcDbText
 10
347.0
 20
166.5
 30
0.0
 40
3.0
  1
　場合があります。
 72
     5
 11
374.0
 21
166.5
 31
0.0
100
AcDbText
  0
TEXT
  5
30D
330
18
100
AcDbEntity
  8
LEVEL001
 62
     3
370
    20
100
AcDbText
 10
347.0
 20
162.5
 30
0.0
 40
3.0
  1
・毎朝夕の昇降を推奨します。
 72
     5
 11
389.0
 21
162.5
 31
0.0
100
AcDbText
  0
TEXT
  5
30E
330
18
100
AcDbEntity
  8
LEVEL001
 62
     3
370
    20
100
AcDbText
 10
347.0
 20
158.5
 30
0.0
 40
3.0
  1
・製品改良のため、一部仕様変更を
 72
     5
 11
395.0
 21
158.5
 31
0.0
100
AcDbText
  0
TEXT
  5
30F
330
18
100
AcDbEntity
  8
LEVEL001
 62
     3
370
    20
100
AcDbText
 10
347.0
 20
154.5
 30
0.0
 40
3.0
  1
　する場合があります。
 72
     5
 11
380.0
 21
154.5
 31
0.0
100
AcDbText
  0
ENDSEC
  0
SECTION
  2
OBJECTS
  0
DICTIONARY
  5
C
330
0
100
AcDbDictionary
281
     1
  3
ACAD_DETAILVIEWSTYLE
350
392
  3
ACAD_GROUP
350
D
  3
ACAD_LAYOUT
350
311
  3
ACAD_MATERIAL
350
34F
  3
ACAD_MLEADERSTYLE
350
390
  3
ACAD_MLINESTYLE
350
1B
  3
ACAD_PLOTSTYLENAME
350
353
  3
ACAD_SCALELIST
350
314
  3
ACAD_SECTIONVIEWSTYLE
350
393
  3
ACAD_TABLESTYLE
350
38F
  3
ACAD_VISUALSTYLE
350
336
  3
AcDbVariableDictionary
350
357
  0
DICTIONARY
  5
355
330
8
100
AcDbDictionary
280
     1
281
     1
  3
ACAD_XREC_ROUNDTRIP
360
356
  0
DICTIONARY
  5
392
102
{ACAD_REACTORS
330
C
102
}
330
C
100
AcDbDictionary
281
     1
  0
DICTIONARY
  5
D
102
{ACAD_REACTORS
330
C
102
}
330
C
100
AcDbDictionary
281
     1
  0
DICTIONARY
  5
311
102
{ACAD_REACTORS
330
C
102
}
330
C
100
AcDbDictionary
281
     1
  3
Layout1
350
313
  3
Model
350
312
  0
DICTIONARY
  5
34F
102
{ACAD_REACTORS
330
C
102
}
330
C
100
AcDbDictionary
281
     1
  3
ByBlock
350
351
  3
ByLayer
350
350
  3
Global
350
352
  0
DICTIONARY
  5
390
102
{ACAD_REACTORS
330
C
102
}
330
C
100
AcDbDictionary
281
     1
  0
DICTIONARY
  5
1B
102
{ACAD_REACTORS
330
C
102
}
330
C
100
AcDbDictionary
281
     1
  0
ACDBDICTIONARYWDFLT
  5
353
102
{ACAD_REACTORS
330
C
102
}
330
C
100
AcDbDictionary
281
     1
  3
Normal
350
354
100
AcDbDictionaryWithDefault
340
354
  0
DICTIONARY
  5
314
102
{ACAD_REACTORS
330
C
102
}
330
C
100
AcDbDictionary
281
     1
  3
A0
350
315
  3
A1
350
316
  3
A2
350
317
  3
A3
350
318
  3
A4
350
319
  3
A5
350
31A
  3
A6
350
31B
  3
A7
350
31C
  3
A8
350
31D
  3
A9
350
31E
  3
B0
350
31F
  3
B1
350
320
  3
B2
350
321
  3
B3
350
322
  3
B4
350
323
  3
B5
350
324
  3
B6
350
325
  3
B7
350
326
  3
B8
350
327
  3
B9
350
328
  3
C0
350
329
  3
C1
350
32A
  3
C2
350
32B
  3
C3
350
32C
  3
C4
350
32D
  3
C5
350
32E
  3
C6
350
32F
  3
C7
350
330
  3
C8
350
331
  3
C9
350
332
  3
D0
350
333
  3
D1
350
334
  3
D2
350
335
  0
DICTIONARY
  5
393
102
{ACAD_REACTORS
330
C
102
}
330
C
100
AcDbDictionary
281
     1
  0
DICTIONARY
  5
38F
102
{ACAD_REACTORS
330
C
102
}
330
C
100
AcDbDictionary
281
     1
  0
DICTIONARY
  5
336
102
{ACAD_REACTORS
330
C
102
}
330
C
100
AcDbDictionary
281
     1
  3
2dWireframe
350
33B
  3
Basic
350
33E
  3
Brighten
350
342
  3
ColorChange
350
346
  3
Conceptual
350
340
  3
Dim
350
341
  3
EdgeColorOff
350
349
  3
Facepattern
350
345
  3
Flat
350
337
  3
FlatWithEdges
350
338
  3
Gouraud
350
339
  3
GouraudWithEdges
350
33A
  3
Hidden
350
33D
  3
JitterOff
350
347
  3
Linepattern
350
344
  3
OverhangOff
350
348
  3
Realistic
350
33F
  3
Shaded
350
34E
  3
Shaded with edges
350
34D
  3
Shades of Gray
350
34A
  3
Sketchy
350
34B
  3
Thicken
350
343
  3
Wireframe
350
33C
  3
X-Ray
350
34C
  0
DICTIONARY
  5
357
102
{ACAD_REACTORS
330
C
102
}
330
C
100
AcDbDictionary
281
     1
  3
CANNOSCALE
350
358
  3
MSLTSCALE
350
391
  0
XRECORD
  5
356
102
{ACAD_REACTORS
330
355
102
}
330
355
100
AcDbXrecord
280
     1
102
VTR_0.000_0.000_1.000_1.000_VISUALSTYLE
340
33B
102
VTR_0.000_0.000_1.000_1.000_GRIDDISPLAY
 70
     3
102
VTR_0.000_0.000_1.000_1.000_GRIDMAJOR
 70
     5
102
VTR_0.000_0.000_1.000_1.000_DEFAULTLIGHTING
280
     1
102
VTR_0.000_0.000_1.000_1.000_DEFAULTLIGHTINGTYPE
 70
     1
102
VTR_0.000_0.000_1.000_1.000_BRIGHTNESS
141
0.0
102
VTR_0.000_0.000_1.000_1.000_CONTRAST
142
0.0
  0
LAYOUT
  5
313
102
{ACAD_REACTORS
330
311
102
}
330
311
100
AcDbPlotSettings
  1

  2
none_device
  4

  6

 40
0.0
 41
0.0
 42
0.0
 43
0.0
 44
0.0
 45
0.0
 46
0.0
 47
0.0
 48
0.0
 49
0.0
140
0.0
141
0.0
142
1.0
143
1.0
 70
   688
 72
     0
 73
     0
 74
     5
  7

 75
    16
 76
     0
 77
     2
 78
   300
147
1.0
148
0.0
149
0.0
100
AcDbLayout
  1
Layout1
 70
     1
 71
     1
 10
0.0
 20
0.0
 11
12.0
 21
9.0
 12
0.0
 22
0.0
 32
0.0
 14
1.000000000000000E+20
 24
1.000000000000000E+20
 34
1.000000000000000E+20
 15
-1.000000000000000E+20
 25
-1.000000000000000E+20
 35
-1.000000000000000E+20
146
0.0
 13
0.0
 23
0.0
 33
0.0
 16
1.0
 26
0.0
 36
0.0
 17
0.0
 27
1.0
 37
0.0
 76
     0
330
15
  0
LAYOUT
  5
312
102
{ACAD_REACTORS
330
311
102
}
330
311
100
AcDbPlotSettings
  1

  2
none_device
  4
Letter_(8.50_x_11.00_Inches)
  6

 40
6.35
 41
6.35
 42
6.35000508
 43
6.35000508
 44
215.9
 45
279.4
 46
0.0
 47
0.0
 48
0.0
 49
0.0
140
0.0
141
0.0
142
1.0
143
77.63636557727389
 70
  1712
 72
     0
 73
     0
 74
     0
  7

 75
     0
 76
     0
 77
     2
 78
   300
147
0.0128805617388757
148
2553.854545454658
149
1562.1
100
AcDbLayout
  1
Model
 70
     1
 71
     0
 10
0.0
 20
0.0
 11
420.0
 21
297.0
 12
0.0
 22
0.0
 32
0.0
 14
0.0
 24
0.0
 34
0.0
 15
420.0
 25
297.0
 35
0.0
146
0.0
 13
0.0
 23
0.0
 33
0.0
 16
1.0
 26
0.0
 36
0.0
 17
0.0
 27
1.0
 37
0.0
 76
     0
330
18
331
310
  0
MATERIAL
  5
351
102
{ACAD_REACTORS
330
34F
102
}
102
{ACAD_XDICTIONARY
360
38B
102
}
330
34F
100
AcDbMaterial
  1
ByBlock
  0
MATERIAL
  5
350
102
{ACAD_REACTORS
330
34F
102
}
102
{ACAD_XDICTIONARY
360
389
102
}
330
34F
100
AcDbMaterial
  1
ByLayer
  0
MATERIAL
  5
352
102
{ACAD_REACTORS
330
34F
102
}
102
{ACAD_XDICTIONARY
360
38D
102
}
330
34F
100
AcDbMaterial
  1
Global
  0
ACDBPLACEHOLDER
  5
354
102
{ACAD_REACTORS
330
353
102
}
330
353
  0
SCALE
  5
315
102
{ACAD_REACTORS
330
314
102
}
330
314
100
AcDbScale
 70
     0
300
1:1
140
1.0
141
1.0
290
     1
  0
SCALE
  5
316
102
{ACAD_REACTORS
330
314
102
}
330
314
100
AcDbScale
 70
     0
300
1:2
140
1.0
141
2.0
290
     0
  0
SCALE
  5
317
102
{ACAD_REACTORS
330
314
102
}
330
314
100
AcDbScale
 70
     0
300
1:4
140
1.0
141
4.0
290
     0
  0
SCALE
  5
318
102
{ACAD_REACTORS
330
314
102
}
330
314
100
AcDbScale
 70
     0
300
1:5
140
1.0
141
5.0
290
     0
  0
SCALE
  5
319
102
{ACAD_REACTORS
330
314
102
}
330
314
100
AcDbScale
 70
     0
300
1:8
140
1.0
141
8.0
290
     0
  0
SCALE
  5
31A
102
{ACAD_REACTORS
330
314
102
}
330
314
100
AcDbScale
 70
     0
300
1:10
140
1.0
141
10.0
290
     0
  0
SCALE
  5
31B
102
{ACAD_REACTORS
330
314
102
}
330
314
100
AcDbScale
 70
     0
300
1:16
140
1.0
141
16.0
290
     0
  0
SCALE
  5
31C
102
{ACAD_REACTORS
330
314
102
}
330
314
100
AcDbScale
 70
     0
300
1:20
140
1.0
141
20.0
290
     0
  0
SCALE
  5
31D
102
{ACAD_REACTORS
330
314
102
}
330
314
100
AcDbScale
 70
     0
300
1:30
140
1.0
141
30.0
290
     0
  0
SCALE
  5
31E
102
{ACAD_REACTORS
330
314
102
}
330
314
100
AcDbScale
 70
     0
300
1:40
140
1.0
141
40.0
290
     0
  0
SCALE
  5
31F
102
{ACAD_REACTORS
330
314
102
}
330
314
100
AcDbScale
 70
     0
300
1:50
140
1.0
141
50.0
290
     0
  0
SCALE
  5
320
102
{ACAD_REACTORS
330
314
102
}
330
314
100
AcDbScale
 70
     0
300
1:100
140
1.0
141
100.0
290
     0
  0
SCALE
  5
321
102
{ACAD_REACTORS
330
314
102
}
330
314
100
AcDbScale
 70
     0
300
2:1
140
2.0
141
1.0
290
     0
  0
SCALE
  5
322
102
{ACAD_REACTORS
330
314
102
}
330
314
100
AcDbScale
 70
     0
300
4:1
140
4.0
141
1.0
290
     0
  0
SCALE
  5
323
102
{ACAD_REACTORS
330
314
102
}
330
314
100
AcDbScale
 70
     0
300
8:1
140
8.0
141
1.0
290
     0
  0
SCALE
  5
324
102
{ACAD_REACTORS
330
314
102
}
330
314
100
AcDbScale
 70
     0
300
10:1
140
10.0
141
1.0
290
     0
  0
SCALE
  5
325
102
{ACAD_REACTORS
330
314
102
}
330
314
100
AcDbScale
 70
     0
300
100:1
140
100.0
141
1.0
290
     0
  0
SCALE
  5
326
102
{ACAD_REACTORS
330
314
102
}
330
314
100
AcDbScale
 70
     0
300
1/128" = 1'-0"
140
0.0078125
141
12.0
290
     0
  0
SCALE
  5
327
102
{ACAD_REACTORS
330
314
102
}
330
314
100
AcDbScale
 70
     0
300
1/64" = 1'-0"
140
0.015625
141
12.0
290
     0
  0
SCALE
  5
328
102
{ACAD_REACTORS
330
314
102
}
330
314
100
AcDbScale
 70
     0
300
1/32" = 1'-0"
140
0.03125
141
12.0
290
     0
  0
SCALE
  5
329
102
{ACAD_REACTORS
330
314
102
}
330
314
100
AcDbScale
 70
     0
300
1/16" = 1'-0"
140
0.0625
141
12.0
290
     0
  0
SCALE
  5
32A
102
{ACAD_REACTORS
330
314
102
}
330
314
100
AcDbScale
 70
     0
300
3/32" = 1'-0"
140
0.09375
141
12.0
290
     0
  0
SCALE
  5
32B
102
{ACAD_REACTORS
330
314
102
}
330
314
100
AcDbScale
 70
     0
300
1/8" = 1'-0"
140
0.125
141
12.0
290
     0
  0
SCALE
  5
32C
102
{ACAD_REACTORS
330
314
102
}
330
314
100
AcDbScale
 70
     0
300
3/16" = 1'-0"
140
0.1875
141
12.0
290
     0
  0
SCALE
  5
32D
102
{ACAD_REACTORS
330
314
102
}
330
314
100
AcDbScale
 70
     0
300
1/4" = 1'-0"
140
0.25
141
12.0
290
     0
  0
SCALE
  5
32E
102
{ACAD_REACTORS
330
314
102
}
330
314
100
AcDbScale
 70
     0
300
3/8" = 1'-0"
140
0.375
141
12.0
290
     0
  0
SCALE
  5
32F
102
{ACAD_REACTORS
330
314
102
}
330
314
100
AcDbScale
 70
     0
300
1/2" = 1'-0"
140
0.5
141
12.0
290
     0
  0
SCALE
  5
330
102
{ACAD_REACTORS
330
314
102
}
330
314
100
AcDbScale
 70
     0
300
3/4" = 1'-0"
140
0.75
141
12.0
290
     0
  0
SCALE
  5
331
102
{ACAD_REACTORS
330
314
102
}
330
314
100
AcDbScale
 70
     0
300
1" = 1'-0"
140
1.0
141
12.0
290
     0
  0
SCALE
  5
332
102
{ACAD_REACTORS
330
314
102
}
330
314
100
AcDbScale
 70
     0
300
1-1/2" = 1'-0"
140
1.5
141
12.0
290
     0
  0
SCALE
  5
333
102
{ACAD_REACTORS
330
314
102
}
330
314
100
AcDbScale
 70
     0
300
3" = 1'-0"
140
3.0
141
12.0
290
     0
  0
SCALE
  5
334
102
{ACAD_REACTORS
330
314
102
}
330
314
100
AcDbScale
 70
     0
300
6" = 1'-0"
140
6.0
141
12.0
290
     0
  0
SCALE
  5
335
102
{ACAD_REACTORS
330
314
102
}
330
314
100
AcDbScale
 70
     0
300
1'-0" = 1'-0"
140
12.0
141
12.0
290
     0
  0
VISUALSTYLE
  5
33B
102
{ACAD_REACTORS
330
336
102
}
102
{ACAD_XDICTIONARY
360
361
102
}
330
336
100
AcDbVisualStyle
  2
2dWireframe
 70
     4
 71
     0
 72
     2
 73
     0
 90
        0
 40
0.6
 41
30.0
 62
     5
 63
     7
421
 16777215
 74
     1
 91
        4
 64
     7
 65
   257
 75
     1
175
     1
 42
1.0
 92
        0
 66
   257
 43
1.0
 76
     1
 77
     6
 78
     2
 67
     7
 79
     5
170
     0
171
     0
290
     0
174
     0
 93
        1
 44
0.0
173
     0
291
     0
 45
0.0
1001
ACAD
1000
AcDbSavedByObjectVersion
1070
     0
  0
VISUALSTYLE
  5
33E
102
{ACAD_REACTORS
330
336
102
}
102
{ACAD_XDICTIONARY
360
367
102
}
330
336
100
AcDbVisualStyle
  2
Basic
 70
     7
 71
     1
 72
     0
 73
     1
 90
        0
 40
0.6
 41
30.0
 62
     5
 63
     7
421
 16777215
 74
     0
 91
        4
 64
     7
 65
   257
 75
     1
175
     1
 42
1.0
 92
        8
 66
     7
 43
1.0
 76
     1
 77
     6
 78
     2
 67
     7
 79
     5
170
     0
171
     0
290
     0
174
     0
 93
        1
 44
0.0
173
     0
291
     1
 45
0.0
1001
ACAD
1000
AcDbSavedByObjectVersion
1070
     0
  0
VISUALSTYLE
  5
342
102
{ACAD_REACTORS
330
336
102
}
102
{ACAD_XDICTIONARY
360
36F
102
}
330
336
100
AcDbVisualStyle
  2
Brighten
 70
    12
 71
     2
 72
     2
 73
     0
 90
        0
 40
0.6
 41
30.0
 62
     5
 63
     7
421
 16777215
 74
     1
 91
        4
 64
     7
 65
   257
 75
     1
175
     1
 42
1.0
 92
        8
 66
     7
 43
1.0
 76
     1
 77
     6
 78
     2
 67
     7
 79
     5
170
     0
171
     0
290
     0
174
     0
 93
        1
 44
50.0
173
     0
291
     1
 45
0.0
1001
ACAD
1000
AcDbSavedByObjectVersion
1070
     0
  0
VISUALSTYLE
  5
346
102
{ACAD_REACTORS
330
336
102
}
102
{ACAD_XDICTIONARY
360
377
102
}
330
336
100
AcDbVisualStyle
  2
ColorChange
 70
    16
 71
     2
 72
     2
 73
     3
 90
        0
 40
0.6
 41
30.0
 62
     5
 63
     8
421
  8421504
 74
     1
 91
        4
 64
     7
 65
   257
 75
     1
175
     1
 42
1.0
 92
        8
 66
     8
424
  8421504
 43
1.0
 76
     1
 77
     6
 78
     2
 67
     7
 79
     5
170
     0
171
     0
290
     0
174
     0
 93
        1
 44
0.0
173
     0
291
     1
 45
0.0
1001
ACAD
1000
AcDbSavedByObjectVersion
1070
     0
  0
VISUALSTYLE
  5
340
102
{ACAD_REACTORS
330
336
102
}
102
{ACAD_XDICTIONARY
360
36B
102
}
330
336
100
AcDbVisualStyle
  2
Conceptual
 70
     9
 71
     3
 72
     2
 73
     0
 90
        0
 40
0.6
 41
30.0
 62
     5
 63
     7
421
 16777215
 74
     2
 91
        2
 64
     7
 65
   257
 75
     1
175
     1
 42
179.0
 92
        8
 66
     7
 43
1.0
 76
     1
 77
     6
 78
     2
 67
     7
 79
     3
170
     0
171
     0
290
     0
174
     0
 93
        1
 44
0.0
173
     0
291
     0
 45
0.0
1001
ACAD
1000
AcDbSavedByObjectVersion
1070
     0
  0
VISUALSTYLE
  5
341
102
{ACAD_REACTORS
330
336
102
}
102
{ACAD_XDICTIONARY
360
36D
102
}
330
336
100
AcDbVisualStyle
  2
Dim
 70
    11
 71
     2
 72
     2
 73
     0
 90
        0
 40
0.6
 41
30.0
 62
     5
 63
     7
421
 16777215
 74
     1
 91
        4
 64
     7
 65
   257
 75
     1
175
     1
 42
1.0
 92
        8
 66
     7
 43
1.0
 76
     1
 77
     6
 78
     2
 67
     7
 79
     5
170
     0
171
     0
290
     0
174
     0
 93
        1
 44
-50.0
173
     0
291
     1
 45
0.0
1001
ACAD
1000
AcDbSavedByObjectVersion
1070
     0
  0
VISUALSTYLE
  5
349
102
{ACAD_REACTORS
330
336
102
}
102
{ACAD_XDICTIONARY
360
37D
102
}
330
336
100
AcDbVisualStyle
  2
EdgeColorOff
 70
    22
 71
     2
 72
     2
 73
     0
 90
        0
 40
0.6
 41
30.0
 62
     5
 63
     7
421
 16777215
 74
     1
 91
        4
 64
     7
 65
   257
 75
     1
175
     1
 42
1.0
 92
        8
 66
     7
 43
1.0
 76
     1
 77
     6
 78
     2
 67
     7
 79
     5
170
     0
171
     0
290
     0
174
     0
 93
        1
 44
0.0
173
     0
291
     1
 45
0.0
1001
ACAD
1000
AcDbSavedByObjectVersion
1070
     0
  0
VISUALSTYLE
  5
345
102
{ACAD_REACTORS
330
336
102
}
102
{ACAD_XDICTIONARY
360
375
102
}
330
336
100
AcDbVisualStyle
  2
Facepattern
 70
    15
 71
     2
 72
     2
 73
     0
 90
        0
 40
0.6
 41
30.0
 62
     5
 63
     7
421
 16777215
 74
     1
 91
        4
 64
     7
 65
   257
 75
     1
175
     1
 42
1.0
 92
        8
 66
     7
 43
1.0
 76
     1
 77
     6
 78
     2
 67
     7
 79
     5
170
     0
171
     0
290
     0
174
     0
 93
        1
 44
0.0
173
     0
291
     1
 45
0.0
1001
ACAD
1000
AcDbSavedByObjectVersion
1070
     0
  0
VISUALSTYLE
  5
337
102
{ACAD_REACTORS
330
336
102
}
102
{ACAD_XDICTIONARY
360
359
102
}
330
336
100
AcDbVisualStyle
  2
Flat
 70
     0
 71
     2
 72
     1
 73
     1
 90
        2
 40
0.6
 41
30.0
 62
     5
 63
     7
421
 16777215
 74
     0
 91
        0
 64
     7
 65
   257
 75
     1
175
     1
 42
1.0
 92
        8
 66
     7
 43
1.0
 76
     1
 77
     6
 78
     2
 67
     7
 79
     5
170
     0
171
     0
290
     0
174
     0
 93
       13
 44
0.0
173
     0
291
     1
 45
0.0
1001
ACAD
1000
AcDbSavedByObjectVersion
1070
     0
  0
VISUALSTYLE
  5
338
102
{ACAD_REACTORS
330
336
102
}
102
{ACAD_XDICTIONARY
360
35B
102
}
330
336
100
AcDbVisualStyle
  2
FlatWithEdges
 70
     1
 71
     2
 72
     1
 73
     1
 90
        2
 40
0.6
 41
30.0
 62
     5
 63
     7
421
 16777215
 74
     1
 91
        0
 64
     7
 65
   257
 75
     1
175
     1
 42
1.0
 92
        0
 66
   257
 43
1.0
 76
     1
 77
     6
 78
     2
 67
     7
 79
     5
170
     0
171
     0
290
     0
174
     0
 93
       13
 44
0.0
173
     0
291
     1
 45
0.0
1001
ACAD
1000
AcDbSavedByObjectVersion
1070
     0
  0
VISUALSTYLE
  5
339
102
{ACAD_REACTORS
330
336
102
}
102
{ACAD_XDICTIONARY
360
35D
102
}
330
336
100
AcDbVisualStyle
  2
Gouraud
 70
     2
 71
     2
 72
     2
 73
     1
 90
        2
 40
0.6
 41
30.0
 62
     5
 63
     7
421
 16777215
 74
     0
 91
        0
 64
     7
 65
   257
 75
     1
175
     1
 42
1.0
 92
        0
 66
     7
 43
1.0
 76
     1
 77
     6
 78
     2
 67
     7
 79
     5
170
     0
171
     0
290
     0
174
     0
 93
       13
 44
0.0
173
     0
291
     1
 45
0.0
1001
ACAD
1000
AcDbSavedByObjectVersion
1070
     0
  0
VISUALSTYLE
  5
33A
102
{ACAD_REACTORS
330
336
102
}
102
{ACAD_XDICTIONARY
360
35F
102
}
330
336
100
AcDbVisualStyle
  2
GouraudWithEdges
 70
     3
 71
     2
 72
     2
 73
     1
 90
        2
 40
0.6
 41
30.0
 62
     5
 63
     7
421
 16777215
 74
     1
 91
        0
 64
     7
 65
   257
 75
     1
175
     1
 42
1.0
 92
        0
 66
   257
 43
1.0
 76
     1
 77
     6
 78
     2
 67
     7
 79
     5
170
     0
171
     0
290
     0
174
     0
 93
       13
 44
0.0
173
     0
291
     1
 45
0.0
1001
ACAD
1000
AcDbSavedByObjectVersion
1070
     0
  0
VISUALSTYLE
  5
33D
102
{ACAD_REACTORS
330
336
102
}
102
{ACAD_XDICTIONARY
360
365
102
}
330
336
100
AcDbVisualStyle
  2
Hidden
 70
     6
 71
     1
 72
     2
 73
     2
 90
        0
 40
0.6
 41
30.0
 62
     5
 63
     7
421
 16777215
 74
     2
 91
        2
 64
     7
 65
   257
 75
     2
175
     1
 42
40.0
 92
        0
 66
   257
 43
1.0
 76
     1
 77
     6
 78
     2
 67
     7
 79
     3
170
     0
171
     0
290
     0
174
     0
 93
        1
 44
0.0
173
     0
291
     0
 45
0.0
1001
ACAD
1000
AcDbSavedByObjectVersion
1070
     0
  0
VISUALSTYLE
  5
347
102
{ACAD_REACTORS
330
336
102
}
102
{ACAD_XDICTIONARY
360
379
102
}
330
336
100
AcDbVisualStyle
  2
JitterOff
 70
    20
 71
     2
 72
     2
 73
     0
 90
        0
 40
0.6
 41
30.0
 62
     5
 63
     7
421
 16777215
 74
     1
 91
        4
 64
     7
 65
   257
 75
     1
175
     1
 42
1.0
 92
       10
 66
     7
 43
1.0
 76
     1
 77
     6
 78
     2
 67
     7
 79
     5
170
     0
171
     0
290
     0
174
     0
 93
        1
 44
0.0
173
     0
291
     1
 45
0.0
1001
ACAD
1000
AcDbSavedByObjectVersion
1070
     0
  0
VISUALSTYLE
  5
344
102
{ACAD_REACTORS
330
336
102
}
102
{ACAD_XDICTIONARY
360
373
102
}
330
336
100
AcDbVisualStyle
  2
Linepattern
 70
    14
 71
     2
 72
     2
 73
     0
 90
        0
 40
0.6
 41
30.0
 62
     5
 63
     7
421
 16777215
 74
     1
 91
        4
 64
     7
 65
   257
 75
     7
175
     7
 42
1.0
 92
        8
 66
     7
 43
1.0
 76
     1
 77
     6
 78
     2
 67
     7
 79
     5
170
     0
171
     0
290
     0
174
     0
 93
        1
 44
0.0
173
     0
291
     1
 45
0.0
1001
ACAD
1000
AcDbSavedByObjectVersion
1070
     0
  0
VISUALSTYLE
  5
348
102
{ACAD_REACTORS
330
336
102
}
102
{ACAD_XDICTIONARY
360
37B
102
}
330
336
100
AcDbVisualStyle
  2
OverhangOff
 70
    21
 71
     2
 72
     2
 73
     0
 90
        0
 40
0.6
 41
30.0
 62
     5
 63
     7
421
 16777215
 74
     1
 91
        4
 64
     7
 65
   257
 75
     1
175
     1
 42
1.0
 92
        9
 66
     7
 43
1.0
 76
     1
 77
     6
 78
     2
 67
     7
 79
     5
170
     0
171
     0
290
     0
174
     0
 93
        1
 44
0.0
173
     0
291
     1
 45
0.0
1001
ACAD
1000
AcDbSavedByObjectVersion
1070
     0
  0
VISUALSTYLE
  5
33F
102
{ACAD_REACTORS
330
336
102
}
102
{ACAD_XDICTIONARY
360
369
102
}
330
336
100
AcDbVisualStyle
  2
Realistic
 70
     8
 71
     2
 72
     3
 73
     0
 90
        2
 40
0.6
 41
30.0
 62
     5
 63
     7
421
 16777215
 74
     0
 91
        0
 64
     7
 65
   257
 75
     1
175
     1
 42
1.0
 92
        8
 66
   257
 43
1.0
 76
     1
 77
     6
 78
     2
 67
     7
 79
     3
170
     0
171
     0
290
     0
174
     0
 93
       13
 44
0.0
173
     0
291
     0
 45
0.0
1001
ACAD
1000
AcDbSavedByObjectVersion
1070
     0
  0
VISUALSTYLE
  5
34E
102
{ACAD_REACTORS
330
336
102
}
102
{ACAD_XDICTIONARY
360
387
102
}
330
336
100
AcDbVisualStyle
  2
Shaded
 70
    27
 71
     2
 72
     2
 73
     1
 90
        2
 40
0.6
 41
30.0
 62
     5
 63
     7
421
 16777215
 74
     0
 91
        4
 64
     7
 65
   257
 75
     1
175
     1
 42
1.0
 92
        8
 66
   257
 43
1.0
 76
     1
 77
     6
 78
     2
 67
     8
425
  7895160
 79
     3
170
     0
171
     0
290
     0
174
     0
 93
        5
 44
0.0
173
     0
291
     0
 45
0.0
1001
ACAD
1000
AcDbSavedByObjectVersion
1070
     0
  0
VISUALSTYLE
  5
34D
102
{ACAD_REACTORS
330
336
102
}
102
{ACAD_XDICTIONARY
360
385
102
}
330
336
100
AcDbVisualStyle
  2
Shaded with edges
 70
    26
 71
     2
 72
     2
 73
     1
 90
        2
 40
0.6
 41
30.0
 62
     5
 63
     7
421
 16777215
 74
     1
 91
       10
 64
     7
 65
   257
 75
     2
175
     1
 42
1.0
 92
        8
 66
   257
 43
1.0
 76
     1
 77
     6
 78
     2
 67
     7
 79
     3
170
     0
171
     0
290
     0
174
     0
 93
        5
 44
0.0
173
     0
291
     0
 45
0.0
1001
ACAD
1000
AcDbSavedByObjectVersion
1070
     0
  0
VISUALSTYLE
  5
34A
102
{ACAD_REACTORS
330
336
102
}
102
{ACAD_XDICTIONARY
360
37F
102
}
330
336
100
AcDbVisualStyle
  2
Shades of Gray
 70
    23
 71
     2
 72
     2
 73
     3
 90
        0
 40
0.6
 41
30.0
 62
     5
 63
     7
421
 16777215
 74
     2
 91
        2
 64
     7
 65
     7
 75
     1
175
     1
 42
40.0
 92
        8
 66
     7
 43
1.0
 76
     1
 77
     6
 78
     2
 67
     7
 79
     3
170
     0
171
     0
290
     0
174
     0
 93
        1
 44
0.0
173
     0
291
     0
 45
0.0
1001
ACAD
1000
AcDbSavedByObjectVersion
1070
     0
  0
VISUALSTYLE
  5
34B
102
{ACAD_REACTORS
330
336
102
}
102
{ACAD_XDICTIONARY
360
381
102
}
330
336
100
AcDbVisualStyle
  2
Sketchy
 70
    24
 71
     1
 72
     2
 73
     2
 90
        0
 40
0.6
 41
30.0
 62
     5
 63
     7
421
 16777215
 74
     2
 91
        2
 64
     7
 65
     7
 75
     1
175
     1
 42
40.0
 92
       11
 66
     7
 43
1.0
 76
     1
 77
     6
 78
     2
 67
     7
 79
     6
170
     0
171
     0
290
     0
174
     0
 93
        1
 44
0.0
173
     0
291
     0
 45
0.0
1001
ACAD
1000
AcDbSavedByObjectVersion
1070
     0
  0
VISUALSTYLE
  5
343
102
{ACAD_REACTORS
330
336
102
}
102
{ACAD_XDICTIONARY
360
371
102
}
330
336
100
AcDbVisualStyle
  2
Thicken
 70
    13
 71
     2
 72
     2
 73
     0
 90
        0
 40
0.6
 41
30.0
 62
     5
 63
     7
421
 16777215
 74
     1
 91
        4
 64
     7
 65
   257
 75
     1
175
     1
 42
1.0
 92
       12
 66
     7
 43
1.0
 76
     1
 77
     6
 78
     2
 67
     7
 79
     5
170
     0
171
     0
290
     0
174
     0
 93
        1
 44
0.0
173
     0
291
     1
 45
0.0
1001
ACAD
1000
AcDbSavedByObjectVersion
1070
     0
  0
VISUALSTYLE
  5
33C
102
{ACAD_REACTORS
330
336
102
}
102
{ACAD_XDICTIONARY
360
363
102
}
330
336
100
AcDbVisualStyle
  2
Wireframe
 70
     5
 71
     0
 72
     2
 73
     0
 90
        0
 40
0.6
 41
30.0
 62
     5
 63
     7
421
 16777215
 74
     1
 91
        4
 64
     7
 65
   257
 75
     1
175
     1
 42
1.0
 92
        0
 66
   257
 43
1.0
 76
     1
 77
     6
 78
     2
 67
     7
 79
     3
170
     0
171
     0
290
     0
174
     0
 93
        1
 44
0.0
173
     0
291
     0
 45
0.0
1001
ACAD
1000
AcDbSavedByObjectVersion
1070
     0
  0
VISUALSTYLE
  5
34C
102
{ACAD_REACTORS
330
336
102
}
102
{ACAD_XDICTIONARY
360
383
102
}
330
336
100
AcDbVisualStyle
  2
X-Ray
 70
    25
 71
     2
 72
     2
 73
     1
 90
        1
 40
0.5
 41
30.0
 62
     5
 63
     7
421
 16777215
 74
     1
 91
        0
 64
     7
 65
   257
 75
     1
175
     1
 42
1.0
 92
        8
 66
     7
 43
1.0
 76
     1
 77
     6
 78
     2
 67
     7
 79
     3
170
     0
171
     0
290
     0
174
     0
 93
       13
 44
0.0
173
     0
291
     0
 45
0.0
1001
ACAD
1000
AcDbSavedByObjectVersion
1070
     0
  0
DICTIONARYVAR
  5
358
102
{ACAD_REACTORS
330
357
102
}
330
357
100
DictionaryVariables
280
     0
  1
1:1
  0
DICTIONARYVAR
  5
391
102
{ACAD_REACTORS
330
357
102
}
330
357
100
DictionaryVariables
280
     0
  1
0
  0
DICTIONARY
  5
38B
330
351
100
AcDbDictionary
280
     1
281
     1
  3
ACAD_XREC_ROUNDTRIP
360
38C
  0
DICTIONARY
  5
389
330
350
100
AcDbDictionary
280
     1
281
     1
  3
ACAD_XREC_ROUNDTRIP
360
38A
  0
DICTIONARY
  5
38D
330
352
100
AcDbDictionary
280
     1
281
     1
  3
ACAD_XREC_ROUNDTRIP
360
38E
  0
DICTIONARY
  5
361
330
33B
100
AcDbDictionary
280
     1
281
     1
  3
ACAD_XREC_ROUNDTRIP
360
362
  0
DICTIONARY
  5
367
330
33E
100
AcDbDictionary
280
     1
281
     1
  3
ACAD_XREC_ROUNDTRIP
360
368
  0
DICTIONARY
  5
36F
330
342
100
AcDbDictionary
280
     1
281
     1
  3
ACAD_XREC_ROUNDTRIP
360
370
  0
DICTIONARY
  5
377
330
346
100
AcDbDictionary
280
     1
281
     1
  3
ACAD_XREC_ROUNDTRIP
360
378
  0
DICTIONARY
  5
36B
330
340
100
AcDbDictionary
280
     1
281
     1
  3
ACAD_XREC_ROUNDTRIP
360
36C
  0
DICTIONARY
  5
36D
330
341
100
AcDbDictionary
280
     1
281
     1
  3
ACAD_XREC_ROUNDTRIP
360
36E
  0
DICTIONARY
  5
37D
330
349
100
AcDbDictionary
280
     1
281
     1
  3
ACAD_XREC_ROUNDTRIP
360
37E
  0
DICTIONARY
  5
375
330
345
100
AcDbDictionary
280
     1
281
     1
  3
ACAD_XREC_ROUNDTRIP
360
376
  0
DICTIONARY
  5
359
330
337
100
AcDbDictionary
280
     1
281
     1
  3
ACAD_XREC_ROUNDTRIP
360
35A
  0
DICTIONARY
  5
35B
330
338
100
AcDbDictionary
280
     1
281
     1
  3
ACAD_XREC_ROUNDTRIP
360
35C
  0
DICTIONARY
  5
35D
330
339
100
AcDbDictionary
280
     1
281
     1
  3
ACAD_XREC_ROUNDTRIP
360
35E
  0
DICTIONARY
  5
35F
330
33A
100
AcDbDictionary
280
     1
281
     1
  3
ACAD_XREC_ROUNDTRIP
360
360
  0
DICTIONARY
  5
365
330
33D
100
AcDbDictionary
280
     1
281
     1
  3
ACAD_XREC_ROUNDTRIP
360
366
  0
DICTIONARY
  5
379
330
347
100
AcDbDictionary
280
     1
281
     1
  3
ACAD_XREC_ROUNDTRIP
360
37A
  0
DICTIONARY
  5
373
330
344
100
AcDbDictionary
280
     1
281
     1
  3
ACAD_XREC_ROUNDTRIP
360
374
  0
DICTIONARY
  5
37B
330
348
100
AcDbDictionary
280
     1
281
     1
  3
ACAD_XREC_ROUNDTRIP
360
37C
  0
DICTIONARY
  5
369
330
33F
100
AcDbDictionary
280
     1
281
     1
  3
ACAD_XREC_ROUNDTRIP
360
36A
  0
DICTIONARY
  5
387
330
34E
100
AcDbDictionary
280
     1
281
     1
  3
ACAD_XREC_ROUNDTRIP
360
388
  0
DICTIONARY
  5
385
330
34D
100
AcDbDictionary
280
     1
281
     1
  3
ACAD_XREC_ROUNDTRIP
360
386
  0
DICTIONARY
  5
37F
330
34A
100
AcDbDictionary
280
     1
281
     1
  3
ACAD_XREC_ROUNDTRIP
360
380
  0
DICTIONARY
  5
381
330
34B
100
AcDbDictionary
280
     1
281
     1
  3
ACAD_XREC_ROUNDTRIP
360
382
  0
DICTIONARY
  5
371
330
343
100
AcDbDictionary
280
     1
281
     1
  3
ACAD_XREC_ROUNDTRIP
360
372
  0
DICTIONARY
  5
363
330
33C
100
AcDbDictionary
280
     1
281
     1
  3
ACAD_XREC_ROUNDTRIP
360
364
  0
DICTIONARY
  5
383
330
34C
100
AcDbDictionary
280
     1
281
     1
  3
ACAD_XREC_ROUNDTRIP
360
384
  0
XRECORD
  5
38C
102
{ACAD_REACTORS
330
38B
102
}
330
38B
100
AcDbXrecord
280
     1
102
MATERIAL
148
0.0
149
0.0
149
0.0
 93
        0
 94
      127
282
     0
 72
     1
 77
     1
171
     1
175
     1
179
     1
273
     0
  0
XRECORD
  5
38A
102
{ACAD_REACTORS
330
389
102
}
330
389
100
AcDbXrecord
280
     1
102
MATERIAL
148
0.0
149
0.0
149
0.0
 93
        0
 94
      127
282
     0
 72
     1
 77
     1
171
     1
175
     1
179
     1
273
     0
  0
XRECORD
  5
38E
102
{ACAD_REACTORS
330
38D
102
}
330
38D
100
AcDbXrecord
280
     1
102
MATERIAL
148
0.0
149
0.0
149
0.0
 93
        0
 94
      127
282
     0
 72
     1
 77
     1
171
     1
175
     1
179
     1
273
     0
  0
XRECORD
  5
362
102
{ACAD_REACTORS
330
361
102
}
330
361
100
AcDbXrecord
280
     1
102
RTVSPropertyOp0
 70
     1
102
RTVSPropertyOp1
 70
     1
102
RTVSPropertyOp2
 70
     1
102
RTVSPropertyOp3
 70
     1
102
RTVSPropertyOp4
 70
     1
102
RTVSPropertyOp5
 70
     1
102
RTVSPropertyOp6
 70
     1
102
RTVSPropertyOp7
 70
     1
102
RTVSPropertyOp8
 70
     1
102
RTVSPropertyOp9
 70
     1
102
RTVSPropertyOp10
 70
     1
102
RTVSPropertyOp11
 70
     1
102
RTVSPropertyOp12
 70
     1
102
RTVSPropertyOp13
 70
     1
102
RTVSPropertyOp14
 70
     1
102
RTVSPropertyOp15
 70
     1
102
RTVSPropertyOp16
 70
     1
102
RTVSPropertyOp17
 70
     1
102
RTVSPropertyOp18
 70
     1
102
RTVSPropertyOp19
 70
     1
102
RTVSPropertyOp20
 70
     1
102
RTVSPropertyOp21
 70
     1
102
RTVSPropertyOp22
 70
     1
102
RTVSPropertyOp23
 70
     1
102
RTVSPropertyOp24
 70
     1
102
RTVSPropertyOp25
 70
     1
102
RTVSPropertyOp26
 70
     1
102
RTVSPropertyOp27
 70
     1
102
RTVSPropertyOp28
 70
     1
102
RTVSPropertyOp29
 70
     1
102
RTVSPropertyOp30
 70
     1
102
RTVSPropertyOp31
 70
     1
102
RTVSPropertyOp32
 70
     1
102
RTVSPropertyOp33
 70
     1
102
RTVSPropertyOp34
 70
     1
102
RTVSPropertyOp35
 70
     1
102
RTVSPropertyOp36
 70
     1
102
RTVSPropertyOp37
 70
     1
102
RTVSPropertyOp38
 70
     1
102
RTVSPropertyOp39
 70
     1
102
RTVSPropertyOp40
 70
     1
102
RTVSPropertyOp41
 70
     1
102
RTVSPropertyOp42
 70
     1
102
RTVSPropertyOp43
 70
     1
102
RTVSPropertyOp44
 70
     1
102
RTVSPropertyOp45
 70
     1
102
RTVSPropertyOp46
 70
     1
102
RTVSPropertyOp47
 70
     1
102
RTVSPropertyOp48
 70
     1
102
RTVSPropertyOp49
 70
     1
102
RTVSPropertyOp50
 70
     1
102
RTVSPropertyOp51
 70
     0
102
RTVSPropertyOp52
 70
     0
102
RTVSPropertyOp53
 70
     1
102
RTVSPropertyOp54
 70
     1
102
RTVSPropertyOp55
 70
     1
102
RTVSPropertyOp56
 70
     1
102
RTVSPropertyOp57
 70
     1
102
RTVSPost2010Prop28
280
     1
102
RTVSPost2010PropOp28
 70
     1
102
RTVSPost2010Prop29
280
     1
102
RTVSPost2010PropOp29
 70
     1
102
RTVSPost2010Prop30
280
     0
102
RTVSPost2010PropOp30
 70
     1
102
RTVSPost2010Prop31
280
     0
102
RTVSPost2010PropOp31
 70
     1
102
RTVSPost2010Prop32
280
     0
102
RTVSPost2010PropOp32
 70
     1
102
RTVSPost2010Prop33
280
     0
102
RTVSPost2010PropOp33
 70
     1
102
RTVSPost2010Prop34
280
     0
102
RTVSPost2010PropOp34
 70
     1
102
RTVSPost2010Prop35
280
     0
102
RTVSPost2010PropOp35
 70
     1
102
RTVSPost2010Prop36
280
     0
102
RTVSPost2010PropOp36
 70
     1
102
RTVSPost2010Prop37
 90
       50
102
RTVSPost2010PropOp37
 70
     1
102
RTVSPost2010Prop38
140
0.0
102
RTVSPost2010PropOp38
 70
     1
102
RTVSPost2010Prop39
140
1.0
102
RTVSPost2010PropOp39
 70
     1
102
RTVSPost2010Prop40
 90
        0
102
RTVSPost2010PropOp40
 70
     1
102
RTVSPost2010Prop41ColorIndex
 90
       18
102
RTVSPost2010Prop41ColorRGB
 90
        0
102
RTVSPost2010PropOp41
 70
     1
102
RTVSPost2010Prop42
 90
       50
102
RTVSPost2010PropOp42
 70
     1
102
RTVSPost2010Prop43
 90
        3
102
RTVSPost2010PropOp43
 70
     1
102
RTVSPost2010Prop44ColorIndex
 90
        5
102
RTVSPost2010Prop44ColorRGB
 90
      255
102
RTVSPost2010PropOp44
 70
     1
102
RTVSPost2010Prop45
280
     0
102
RTVSPost2010PropOp45
 70
     1
102
RTVSPost2010Prop46
 90
       50
102
RTVSPost2010PropOp46
 70
     1
102
RTVSPost2010Prop47
 90
       50
102
RTVSPost2010PropOp47
 70
     1
102
RTVSPost2010Prop48
 90
       50
102
RTVSPost2010PropOp48
 70
     1
102
RTVSPost2010Prop49
280
     0
102
RTVSPost2010PropOp49
 70
     1
102
RTVSPost2010Prop50
 90
       50
102
RTVSPost2010PropOp50
 70
     1
102
RTVSPost2010Prop51ColorIndex
 90
      256
102
RTVSPost2010Prop51ColorRGB
 90
-16777216
102
RTVSPost2010PropOp51
 70
     0
102
RTVSPost2010Prop52
140
1.0
102
RTVSPost2010PropOp52
 70
     0
102
RTVSPost2010Prop53
 90
        2
102
RTVSPost2010PropOp53
 70
     1
102
RTVSPost2010Prop54
  1
strokes_ogs.tif
102
RTVSPost2010PropOp54
 70
     1
102
RTVSPost2010Prop55
280
     0
102
RTVSPost2010PropOp55
 70
     1
102
RTVSPost2010Prop56
140
1.0
102
RTVSPost2010PropOp56
 70
     1
102
RTVSPost2010Prop57
140
1.0
102
RTVSPost2010PropOp57
 70
     1
  0
XRECORD
  5
368
102
{ACAD_REACTORS
330
367
102
}
330
367
100
AcDbXrecord
280
     1
102
RTVSPropertyOp0
 70
     1
102
RTVSPropertyOp1
 70
     1
102
RTVSPropertyOp2
 70
     1
102
RTVSPropertyOp3
 70
     1
102
RTVSPropertyOp4
 70
     1
102
RTVSPropertyOp5
 70
     1
102
RTVSPropertyOp6
 70
     1
102
RTVSPropertyOp7
 70
     1
102
RTVSPropertyOp8
 70
     1
102
RTVSPropertyOp9
 70
     1
102
RTVSPropertyOp10
 70
     1
102
RTVSPropertyOp11
 70
     1
102
RTVSPropertyOp12
 70
     1
102
RTVSPropertyOp13
 70
     1
102
RTVSPropertyOp14
 70
     1
102
RTVSPropertyOp15
 70
     1
102
RTVSPropertyOp16
 70
     1
102
RTVSPropertyOp17
 70
     1
102
RTVSPropertyOp18
 70
     1
102
RTVSPropertyOp19
 70
     1
102
RTVSPropertyOp20
 70
     1
102
RTVSPropertyOp21
 70
     1
102
RTVSPropertyOp22
 70
     1
102
RTVSPropertyOp23
 70
     1
102
RTVSPropertyOp24
 70
     1
102
RTVSPropertyOp25
 70
     1
102
RTVSPropertyOp26
 70
     1
102
RTVSPropertyOp27
 70
     1
102
RTVSPropertyOp28
 70
     1
102
RTVSPropertyOp29
 70
     1
102
RTVSPropertyOp30
 70
     1
102
RTVSPropertyOp31
 70
     1
102
RTVSPropertyOp32
 70
     1
102
RTVSPropertyOp33
 70
     1
102
RTVSPropertyOp34
 70
     1
102
RTVSPropertyOp35
 70
     1
102
RTVSPropertyOp36
 70
     1
102
RTVSPropertyOp37
 70
     1
102
RTVSPropertyOp38
 70
     1
102
RTVSPropertyOp39
 70
     1
102
RTVSPropertyOp40
 70
     1
102
RTVSPropertyOp41
 70
     1
102
RTVSPropertyOp42
 70
     1
102
RTVSPropertyOp43
 70
     1
102
RTVSPropertyOp44
 70
     1
102
RTVSPropertyOp45
 70
     1
102
RTVSPropertyOp46
 70
     1
102
RTVSPropertyOp47
 70
     1
102
RTVSPropertyOp48
 70
     1
102
RTVSPropertyOp49
 70
     1
102
RTVSPropertyOp50
 70
     1
102
RTVSPropertyOp51
 70
     0
102
RTVSPropertyOp52
 70
     0
102
RTVSPropertyOp53
 70
     1
102
RTVSPropertyOp54
 70
     1
102
RTVSPropertyOp55
 70
     1
102
RTVSPropertyOp56
 70
     1
102
RTVSPropertyOp57
 70
     1
102
RTVSPost2010Prop28
280
     0
102
RTVSPost2010PropOp28
 70
     1
102
RTVSPost2010Prop29
280
     1
102
RTVSPost2010PropOp29
 70
     1
102
RTVSPost2010Prop30
280
     1
102
RTVSPost2010PropOp30
 70
     1
102
RTVSPost2010Prop31
280
     0
102
RTVSPost2010PropOp31
 70
     1
102
RTVSPost2010Prop32
280
     0
102
RTVSPost2010PropOp32
 70
     1
102
RTVSPost2010Prop33
280
     0
102
RTVSPost2010PropOp33
 70
     1
102
RTVSPost2010Prop34
280
     0
102
RTVSPost2010PropOp34
 70
     1
102
RTVSPost2010Prop35
280
     0
102
RTVSPost2010PropOp35
 70
     1
102
RTVSPost2010Prop36
280
     0
102
RTVSPost2010PropOp36
 70
     1
102
RTVSPost2010Prop37
 90
       50
102
RTVSPost2010PropOp37
 70
     1
102
RTVSPost2010Prop38
140
0.0
102
RTVSPost2010PropOp38
 70
     1
102
RTVSPost2010Prop39
140
1.0
102
RTVSPost2010PropOp39
 70
     1
102
RTVSPost2010Prop40
 90
        0
102
RTVSPost2010PropOp40
 70
     1
102
RTVSPost2010Prop41ColorIndex
 90
       18
102
RTVSPost2010Prop41ColorRGB
 90
        0
102
RTVSPost2010PropOp41
 70
     1
102
RTVSPost2010Prop42
 90
       50
102
RTVSPost2010PropOp42
 70
     1
102
RTVSPost2010Prop43
 90
        3
102
RTVSPost2010PropOp43
 70
     1
102
RTVSPost2010Prop44ColorIndex
 90
        5
102
RTVSPost2010Prop44ColorRGB
 90
      255
102
RTVSPost2010PropOp44
 70
     1
102
RTVSPost2010Prop45
280
     0
102
RTVSPost2010PropOp45
 70
     1
102
RTVSPost2010Prop46
 90
       50
102
RTVSPost2010PropOp46
 70
     1
102
RTVSPost2010Prop47
 90
       50
102
RTVSPost2010PropOp47
 70
     1
102
RTVSPost2010Prop48
 90
       50
102
RTVSPost2010PropOp48
 70
     1
102
RTVSPost2010Prop49
280
     0
102
RTVSPost2010PropOp49
 70
     1
102
RTVSPost2010Prop50
 90
       50
102
RTVSPost2010PropOp50
 70
     1
102
RTVSPost2010Prop51ColorIndex
 90
      256
102
RTVSPost2010Prop51ColorRGB
 90
-16777216
102
RTVSPost2010PropOp51
 70
     0
102
RTVSPost2010Prop52
140
1.0
102
RTVSPost2010PropOp52
 70
     0
102
RTVSPost2010Prop53
 90
        2
102
RTVSPost2010PropOp53
 70
     1
102
RTVSPost2010Prop54
  1
strokes_ogs.tif
102
RTVSPost2010PropOp54
 70
     1
102
RTVSPost2010Prop55
280
     0
102
RTVSPost2010PropOp55
 70
     1
102
RTVSPost2010Prop56
140
1.0
102
RTVSPost2010PropOp56
 70
     1
102
RTVSPost2010Prop57
140
1.0
102
RTVSPost2010PropOp57
 70
     1
  0
XRECORD
  5
370
102
{ACAD_REACTORS
330
36F
102
}
330
36F
100
AcDbXrecord
280
     1
102
RTVSPropertyOp0
 70
     1
102
RTVSPropertyOp1
 70
     1
102
RTVSPropertyOp2
 70
     1
102
RTVSPropertyOp3
 70
     1
102
RTVSPropertyOp4
 70
     1
102
RTVSPropertyOp5
 70
     1
102
RTVSPropertyOp6
 70
     1
102
RTVSPropertyOp7
 70
     1
102
RTVSPropertyOp8
 70
     1
102
RTVSPropertyOp9
 70
     1
102
RTVSPropertyOp10
 70
     1
102
RTVSPropertyOp11
 70
     1
102
RTVSPropertyOp12
 70
     1
102
RTVSPropertyOp13
 70
     1
102
RTVSPropertyOp14
 70
     1
102
RTVSPropertyOp15
 70
     1
102
RTVSPropertyOp16
 70
     1
102
RTVSPropertyOp17
 70
     1
102
RTVSPropertyOp18
 70
     1
102
RTVSPropertyOp19
 70
     1
102
RTVSPropertyOp20
 70
     1
102
RTVSPropertyOp21
 70
     1
102
RTVSPropertyOp22
 70
     1
102
RTVSPropertyOp23
 70
     1
102
RTVSPropertyOp24
 70
     1
102
RTVSPropertyOp25
 70
     1
102
RTVSPropertyOp26
 70
     1
102
RTVSPropertyOp27
 70
     1
102
RTVSPropertyOp28
 70
     1
102
RTVSPropertyOp29
 70
     1
102
RTVSPropertyOp30
 70
     1
102
RTVSPropertyOp31
 70
     1
102
RTVSPropertyOp32
 70
     1
102
RTVSPropertyOp33
 70
     1
102
RTVSPropertyOp34
 70
     1
102
RTVSPropertyOp35
 70
     1
102
RTVSPropertyOp36
 70
     1
102
RTVSPropertyOp37
 70
     1
102
RTVSPropertyOp38
 70
     1
102
RTVSPropertyOp39
 70
     1
102
RTVSPropertyOp40
 70
     1
102
RTVSPropertyOp41
 70
     1
102
RTVSPropertyOp42
 70
     1
102
RTVSPropertyOp43
 70
     1
102
RTVSPropertyOp44
 70
     1
102
RTVSPropertyOp45
 70
     1
102
RTVSPropertyOp46
 70
     1
102
RTVSPropertyOp47
 70
     1
102
RTVSPropertyOp48
 70
     1
102
RTVSPropertyOp49
 70
     1
102
RTVSPropertyOp50
 70
     1
102
RTVSPropertyOp51
 70
     0
102
RTVSPropertyOp52
 70
     0
102
RTVSPropertyOp53
 70
     1
102
RTVSPropertyOp54
 70
     1
102
RTVSPropertyOp55
 70
     1
102
RTVSPropertyOp56
 70
     1
102
RTVSPropertyOp57
 70
     1
102
RTVSPost2010Prop28
280
     0
102
RTVSPost2010PropOp28
 70
     1
102
RTVSPost2010Prop29
280
     1
102
RTVSPost2010PropOp29
 70
     1
102
RTVSPost2010Prop30
280
     1
102
RTVSPost2010PropOp30
 70
     1
102
RTVSPost2010Prop31
280
     0
102
RTVSPost2010PropOp31
 70
     1
102
RTVSPost2010Prop32
280
     0
102
RTVSPost2010PropOp32
 70
     1
102
RTVSPost2010Prop33
280
     0
102
RTVSPost2010PropOp33
 70
     1
102
RTVSPost2010Prop34
280
     0
102
RTVSPost2010PropOp34
 70
     1
102
RTVSPost2010Prop35
280
     0
102
RTVSPost2010PropOp35
 70
     1
102
RTVSPost2010Prop36
280
     0
102
RTVSPost2010PropOp36
 70
     1
102
RTVSPost2010Prop37
 90
       50
102
RTVSPost2010PropOp37
 70
     1
102
RTVSPost2010Prop38
140
0.0
102
RTVSPost2010PropOp38
 70
     1
102
RTVSPost2010Prop39
140
1.0
102
RTVSPost2010PropOp39
 70
     1
102
RTVSPost2010Prop40
 90
        0
102
RTVSPost2010PropOp40
 70
     1
102
RTVSPost2010Prop41ColorIndex
 90
       18
102
RTVSPost2010Prop41ColorRGB
 90
        0
102
RTVSPost2010PropOp41
 70
     1
102
RTVSPost2010Prop42
 90
       50
102
RTVSPost2010PropOp42
 70
     1
102
RTVSPost2010Prop43
 90
        3
102
RTVSPost2010PropOp43
 70
     1
102
RTVSPost2010Prop44ColorIndex
 90
        5
102
RTVSPost2010Prop44ColorRGB
 90
      255
102
RTVSPost2010PropOp44
 70
     1
102
RTVSPost2010Prop45
280
     0
102
RTVSPost2010PropOp45
 70
     1
102
RTVSPost2010Prop46
 90
       50
102
RTVSPost2010PropOp46
 70
     1
102
RTVSPost2010Prop47
 90
       50
102
RTVSPost2010PropOp47
 70
     1
102
RTVSPost2010Prop48
 90
       50
102
RTVSPost2010PropOp48
 70
     1
102
RTVSPost2010Prop49
280
     0
102
RTVSPost2010PropOp49
 70
     1
102
RTVSPost2010Prop50
 90
       50
102
RTVSPost2010PropOp50
 70
     1
102
RTVSPost2010Prop51ColorIndex
 90
      256
102
RTVSPost2010Prop51ColorRGB
 90
-16777216
102
RTVSPost2010PropOp51
 70
     0
102
RTVSPost2010Prop52
140
1.0
102
RTVSPost2010PropOp52
 70
     0
102
RTVSPost2010Prop53
 90
        2
102
RTVSPost2010PropOp53
 70
     1
102
RTVSPost2010Prop54
  1
strokes_ogs.tif
102
RTVSPost2010PropOp54
 70
     1
102
RTVSPost2010Prop55
280
     0
102
RTVSPost2010PropOp55
 70
     1
102
RTVSPost2010Prop56
140
1.0
102
RTVSPost2010PropOp56
 70
     1
102
RTVSPost2010Prop57
140
1.0
102
RTVSPost2010PropOp57
 70
     1
  0
XRECORD
  5
378
102
{ACAD_REACTORS
330
377
102
}
330
377
100
AcDbXrecord
280
     1
102
RTVSPropertyOp0
 70
     1
102
RTVSPropertyOp1
 70
     1
102
RTVSPropertyOp2
 70
     1
102
RTVSPropertyOp3
 70
     1
102
RTVSPropertyOp4
 70
     1
102
RTVSPropertyOp5
 70
     1
102
RTVSPropertyOp6
 70
     1
102
RTVSPropertyOp7
 70
     1
102
RTVSPropertyOp8
 70
     1
102
RTVSPropertyOp9
 70
     1
102
RTVSPropertyOp10
 70
     1
102
RTVSPropertyOp11
 70
     1
102
RTVSPropertyOp12
 70
     1
102
RTVSPropertyOp13
 70
     1
102
RTVSPropertyOp14
 70
     1
102
RTVSPropertyOp15
 70
     1
102
RTVSPropertyOp16
 70
     1
102
RTVSPropertyOp17
 70
     1
102
RTVSPropertyOp18
 70
     1
102
RTVSPropertyOp19
 70
     1
102
RTVSPropertyOp20
 70
     1
102
RTVSPropertyOp21
 70
     1
102
RTVSPropertyOp22
 70
     1
102
RTVSPropertyOp23
 70
     1
102
RTVSPropertyOp24
 70
     1
102
RTVSPropertyOp25
 70
     1
102
RTVSPropertyOp26
 70
     1
102
RTVSPropertyOp27
 70
     1
102
RTVSPropertyOp28
 70
     1
102
RTVSPropertyOp29
 70
     1
102
RTVSPropertyOp30
 70
     1
102
RTVSPropertyOp31
 70
     1
102
RTVSPropertyOp32
 70
     1
102
RTVSPropertyOp33
 70
     1
102
RTVSPropertyOp34
 70
     1
102
RTVSPropertyOp35
 70
     1
102
RTVSPropertyOp36
 70
     1
102
RTVSPropertyOp37
 70
     1
102
RTVSPropertyOp38
 70
     1
102
RTVSPropertyOp39
 70
     1
102
RTVSPropertyOp40
 70
     1
102
RTVSPropertyOp41
 70
     1
102
RTVSPropertyOp42
 70
     1
102
RTVSPropertyOp43
 70
     1
102
RTVSPropertyOp44
 70
     1
102
RTVSPropertyOp45
 70
     1
102
RTVSPropertyOp46
 70
     1
102
RTVSPropertyOp47
 70
     1
102
RTVSPropertyOp48
 70
     1
102
RTVSPropertyOp49
 70
     1
102
RTVSPropertyOp50
 70
     1
102
RTVSPropertyOp51
 70
     0
102
RTVSPropertyOp52
 70
     0
102
RTVSPropertyOp53
 70
     1
102
RTVSPropertyOp54
 70
     1
102
RTVSPropertyOp55
 70
     1
102
RTVSPropertyOp56
 70
     1
102
RTVSPropertyOp57
 70
     1
102
RTVSPost2010Prop28
280
     0
102
RTVSPost2010PropOp28
 70
     1
102
RTVSPost2010Prop29
280
     1
102
RTVSPost2010PropOp29
 70
     1
102
RTVSPost2010Prop30
280
     1
102
RTVSPost2010PropOp30
 70
     1
102
RTVSPost2010Prop31
280
     0
102
RTVSPost2010PropOp31
 70
     1
102
RTVSPost2010Prop32
280
     0
102
RTVSPost2010PropOp32
 70
     1
102
RTVSPost2010Prop33
280
     0
102
RTVSPost2010PropOp33
 70
     1
102
RTVSPost2010Prop34
280
     0
102
RTVSPost2010PropOp34
 70
     1
102
RTVSPost2010Prop35
280
     0
102
RTVSPost2010PropOp35
 70
     1
102
RTVSPost2010Prop36
280
     0
102
RTVSPost2010PropOp36
 70
     1
102
RTVSPost2010Prop37
 90
       50
102
RTVSPost2010PropOp37
 70
     1
102
RTVSPost2010Prop38
140
0.0
102
RTVSPost2010PropOp38
 70
     1
102
RTVSPost2010Prop39
140
1.0
102
RTVSPost2010PropOp39
 70
     1
102
RTVSPost2010Prop40
 90
        0
102
RTVSPost2010PropOp40
 70
     1
102
RTVSPost2010Prop41ColorIndex
 90
       18
102
RTVSPost2010Prop41ColorRGB
 90
        0
102
RTVSPost2010PropOp41
 70
     1
102
RTVSPost2010Prop42
 90
       50
102
RTVSPost2010PropOp42
 70
     1
102
RTVSPost2010Prop43
 90
        3
102
RTVSPost2010PropOp43
 70
     1
102
RTVSPost2010Prop44ColorIndex
 90
        5
102
RTVSPost2010Prop44ColorRGB
 90
      255
102
RTVSPost2010PropOp44
 70
     1
102
RTVSPost2010Prop45
280
     0
102
RTVSPost2010PropOp45
 70
     1
102
RTVSPost2010Prop46
 90
       50
102
RTVSPost2010PropOp46
 70
     1
102
RTVSPost2010Prop47
 90
       50
102
RTVSPost2010PropOp47
 70
     1
102
RTVSPost2010Prop48
 90
       50
102
RTVSPost2010PropOp48
 70
     1
102
RTVSPost2010Prop49
280
     0
102
RTVSPost2010PropOp49
 70
     1
102
RTVSPost2010Prop50
 90
       50
102
RTVSPost2010PropOp50
 70
     1
102
RTVSPost2010Prop51ColorIndex
 90
      256
102
RTVSPost2010Prop51ColorRGB
 90
-16777216
102
RTVSPost2010PropOp51
 70
     0
102
RTVSPost2010Prop52
140
1.0
102
RTVSPost2010PropOp52
 70
     0
102
RTVSPost2010Prop53
 90
        2
102
RTVSPost2010PropOp53
 70
     1
102
RTVSPost2010Prop54
  1
strokes_ogs.tif
102
RTVSPost2010PropOp54
 70
     1
102
RTVSPost2010Prop55
280
     0
102
RTVSPost2010PropOp55
 70
     1
102
RTVSPost2010Prop56
140
1.0
102
RTVSPost2010PropOp56
 70
     1
102
RTVSPost2010Prop57
140
1.0
102
RTVSPost2010PropOp57
 70
     1
  0
XRECORD
  5
36C
102
{ACAD_REACTORS
330
36B
102
}
330
36B
100
AcDbXrecord
280
     1
102
RTVSPropertyOp0
 70
     1
102
RTVSPropertyOp1
 70
     1
102
RTVSPropertyOp2
 70
     1
102
RTVSPropertyOp3
 70
     1
102
RTVSPropertyOp4
 70
     1
102
RTVSPropertyOp5
 70
     1
102
RTVSPropertyOp6
 70
     1
102
RTVSPropertyOp7
 70
     1
102
RTVSPropertyOp8
 70
     1
102
RTVSPropertyOp9
 70
     1
102
RTVSPropertyOp10
 70
     1
102
RTVSPropertyOp11
 70
     1
102
RTVSPropertyOp12
 70
     1
102
RTVSPropertyOp13
 70
     1
102
RTVSPropertyOp14
 70
     1
102
RTVSPropertyOp15
 70
     1
102
RTVSPropertyOp16
 70
     1
102
RTVSPropertyOp17
 70
     1
102
RTVSPropertyOp18
 70
     1
102
RTVSPropertyOp19
 70
     1
102
RTVSPropertyOp20
 70
     1
102
RTVSPropertyOp21
 70
     1
102
RTVSPropertyOp22
 70
     1
102
RTVSPropertyOp23
 70
     1
102
RTVSPropertyOp24
 70
     1
102
RTVSPropertyOp25
 70
     1
102
RTVSPropertyOp26
 70
     1
102
RTVSPropertyOp27
 70
     1
102
RTVSPropertyOp28
 70
     1
102
RTVSPropertyOp29
 70
     1
102
RTVSPropertyOp30
 70
     1
102
RTVSPropertyOp31
 70
     1
102
RTVSPropertyOp32
 70
     1
102
RTVSPropertyOp33
 70
     1
102
RTVSPropertyOp34
 70
     1
102
RTVSPropertyOp35
 70
     1
102
RTVSPropertyOp36
 70
     1
102
RTVSPropertyOp37
 70
     1
102
RTVSPropertyOp38
 70
     1
102
RTVSPropertyOp39
 70
     1
102
RTVSPropertyOp40
 70
     1
102
RTVSPropertyOp41
 70
     1
102
RTVSPropertyOp42
 70
     1
102
RTVSPropertyOp43
 70
     1
102
RTVSPropertyOp44
 70
     1
102
RTVSPropertyOp45
 70
     1
102
RTVSPropertyOp46
 70
     1
102
RTVSPropertyOp47
 70
     1
102
RTVSPropertyOp48
 70
     1
102
RTVSPropertyOp49
 70
     1
102
RTVSPropertyOp50
 70
     1
102
RTVSPropertyOp51
 70
     0
102
RTVSPropertyOp52
 70
     0
102
RTVSPropertyOp53
 70
     1
102
RTVSPropertyOp54
 70
     1
102
RTVSPropertyOp55
 70
     1
102
RTVSPropertyOp56
 70
     1
102
RTVSPropertyOp57
 70
     1
102
RTVSPost2010Prop28
280
     0
102
RTVSPost2010PropOp28
 70
     1
102
RTVSPost2010Prop29
280
     1
102
RTVSPost2010PropOp29
 70
     1
102
RTVSPost2010Prop30
280
     1
102
RTVSPost2010PropOp30
 70
     1
102
RTVSPost2010Prop31
280
     0
102
RTVSPost2010PropOp31
 70
     1
102
RTVSPost2010Prop32
280
     0
102
RTVSPost2010PropOp32
 70
     1
102
RTVSPost2010Prop33
280
     0
102
RTVSPost2010PropOp33
 70
     1
102
RTVSPost2010Prop34
280
     0
102
RTVSPost2010PropOp34
 70
     1
102
RTVSPost2010Prop35
280
     0
102
RTVSPost2010PropOp35
 70
     1
102
RTVSPost2010Prop36
280
     0
102
RTVSPost2010PropOp36
 70
     1
102
RTVSPost2010Prop37
 90
       50
102
RTVSPost2010PropOp37
 70
     1
102
RTVSPost2010Prop38
140
0.0
102
RTVSPost2010PropOp38
 70
     1
102
RTVSPost2010Prop39
140
1.0
102
RTVSPost2010PropOp39
 70
     1
102
RTVSPost2010Prop40
 90
        0
102
RTVSPost2010PropOp40
 70
     1
102
RTVSPost2010Prop41ColorIndex
 90
       18
102
RTVSPost2010Prop41ColorRGB
 90
        0
102
RTVSPost2010PropOp41
 70
     1
102
RTVSPost2010Prop42
 90
       50
102
RTVSPost2010PropOp42
 70
     1
102
RTVSPost2010Prop43
 90
        3
102
RTVSPost2010PropOp43
 70
     1
102
RTVSPost2010Prop44ColorIndex
 90
        5
102
RTVSPost2010Prop44ColorRGB
 90
      255
102
RTVSPost2010PropOp44
 70
     1
102
RTVSPost2010Prop45
280
     0
102
RTVSPost2010PropOp45
 70
     1
102
RTVSPost2010Prop46
 90
       50
102
RTVSPost2010PropOp46
 70
     1
102
RTVSPost2010Prop47
 90
       50
102
RTVSPost2010PropOp47
 70
     1
102
RTVSPost2010Prop48
 90
       50
102
RTVSPost2010PropOp48
 70
     1
102
RTVSPost2010Prop49
280
     0
102
RTVSPost2010PropOp49
 70
     1
102
RTVSPost2010Prop50
 90
       50
102
RTVSPost2010PropOp50
 70
     1
102
RTVSPost2010Prop51ColorIndex
 90
      256
102
RTVSPost2010Prop51ColorRGB
 90
-16777216
102
RTVSPost2010PropOp51
 70
     0
102
RTVSPost2010Prop52
140
1.0
102
RTVSPost2010PropOp52
 70
     0
102
RTVSPost2010Prop53
 90
        2
102
RTVSPost2010PropOp53
 70
     1
102
RTVSPost2010Prop54
  1
strokes_ogs.tif
102
RTVSPost2010PropOp54
 70
     1
102
RTVSPost2010Prop55
280
     0
102
RTVSPost2010PropOp55
 70
     1
102
RTVSPost2010Prop56
140
1.0
102
RTVSPost2010PropOp56
 70
     1
102
RTVSPost2010Prop57
140
1.0
102
RTVSPost2010PropOp57
 70
     1
  0
XRECORD
  5
36E
102
{ACAD_REACTORS
330
36D
102
}
330
36D
100
AcDbXrecord
280
     1
102
RTVSPropertyOp0
 70
     1
102
RTVSPropertyOp1
 70
     1
102
RTVSPropertyOp2
 70
     1
102
RTVSPropertyOp3
 70
     1
102
RTVSPropertyOp4
 70
     1
102
RTVSPropertyOp5
 70
     1
102
RTVSPropertyOp6
 70
     1
102
RTVSPropertyOp7
 70
     1
102
RTVSPropertyOp8
 70
     1
102
RTVSPropertyOp9
 70
     1
102
RTVSPropertyOp10
 70
     1
102
RTVSPropertyOp11
 70
     1
102
RTVSPropertyOp12
 70
     1
102
RTVSPropertyOp13
 70
     1
102
RTVSPropertyOp14
 70
     1
102
RTVSPropertyOp15
 70
     1
102
RTVSPropertyOp16
 70
     1
102
RTVSPropertyOp17
 70
     1
102
RTVSPropertyOp18
 70
     1
102
RTVSPropertyOp19
 70
     1
102
RTVSPropertyOp20
 70
     1
102
RTVSPropertyOp21
 70
     1
102
RTVSPropertyOp22
 70
     1
102
RTVSPropertyOp23
 70
     1
102
RTVSPropertyOp24
 70
     1
102
RTVSPropertyOp25
 70
     1
102
RTVSPropertyOp26
 70
     1
102
RTVSPropertyOp27
 70
     1
102
RTVSPropertyOp28
 70
     1
102
RTVSPropertyOp29
 70
     1
102
RTVSPropertyOp30
 70
     1
102
RTVSPropertyOp31
 70
     1
102
RTVSPropertyOp32
 70
     1
102
RTVSPropertyOp33
 70
     1
102
RTVSPropertyOp34
 70
     1
102
RTVSPropertyOp35
 70
     1
102
RTVSPropertyOp36
 70
     1
102
RTVSPropertyOp37
 70
     1
102
RTVSPropertyOp38
 70
     1
102
RTVSPropertyOp39
 70
     1
102
RTVSPropertyOp40
 70
     1
102
RTVSPropertyOp41
 70
     1
102
RTVSPropertyOp42
 70
     1
102
RTVSPropertyOp43
 70
     1
102
RTVSPropertyOp44
 70
     1
102
RTVSPropertyOp45
 70
     1
102
RTVSPropertyOp46
 70
     1
102
RTVSPropertyOp47
 70
     1
102
RTVSPropertyOp48
 70
     1
102
RTVSPropertyOp49
 70
     1
102
RTVSPropertyOp50
 70
     1
102
RTVSPropertyOp51
 70
     0
102
RTVSPropertyOp52
 70
     0
102
RTVSPropertyOp53
 70
     1
102
RTVSPropertyOp54
 70
     1
102
RTVSPropertyOp55
 70
     1
102
RTVSPropertyOp56
 70
     1
102
RTVSPropertyOp57
 70
     1
102
RTVSPost2010Prop28
280
     0
102
RTVSPost2010PropOp28
 70
     1
102
RTVSPost2010Prop29
280
     1
102
RTVSPost2010PropOp29
 70
     1
102
RTVSPost2010Prop30
280
     1
102
RTVSPost2010PropOp30
 70
     1
102
RTVSPost2010Prop31
280
     0
102
RTVSPost2010PropOp31
 70
     1
102
RTVSPost2010Prop32
280
     0
102
RTVSPost2010PropOp32
 70
     1
102
RTVSPost2010Prop33
280
     0
102
RTVSPost2010PropOp33
 70
     1
102
RTVSPost2010Prop34
280
     0
102
RTVSPost2010PropOp34
 70
     1
102
RTVSPost2010Prop35
280
     0
102
RTVSPost2010PropOp35
 70
     1
102
RTVSPost2010Prop36
280
     0
102
RTVSPost2010PropOp36
 70
     1
102
RTVSPost2010Prop37
 90
       50
102
RTVSPost2010PropOp37
 70
     1
102
RTVSPost2010Prop38
140
0.0
102
RTVSPost2010PropOp38
 70
     1
102
RTVSPost2010Prop39
140
1.0
102
RTVSPost2010PropOp39
 70
     1
102
RTVSPost2010Prop40
 90
        0
102
RTVSPost2010PropOp40
 70
     1
102
RTVSPost2010Prop41ColorIndex
 90
       18
102
RTVSPost2010Prop41ColorRGB
 90
        0
102
RTVSPost2010PropOp41
 70
     1
102
RTVSPost2010Prop42
 90
       50
102
RTVSPost2010PropOp42
 70
     1
102
RTVSPost2010Prop43
 90
        3
102
RTVSPost2010PropOp43
 70
     1
102
RTVSPost2010Prop44ColorIndex
 90
        5
102
RTVSPost2010Prop44ColorRGB
 90
      255
102
RTVSPost2010PropOp44
 70
     1
102
RTVSPost2010Prop45
280
     0
102
RTVSPost2010PropOp45
 70
     1
102
RTVSPost2010Prop46
 90
       50
102
RTVSPost2010PropOp46
 70
     1
102
RTVSPost2010Prop47
 90
       50
102
RTVSPost2010PropOp47
 70
     1
102
RTVSPost2010Prop48
 90
       50
102
RTVSPost2010PropOp48
 70
     1
102
RTVSPost2010Prop49
280
     0
102
RTVSPost2010PropOp49
 70
     1
102
RTVSPost2010Prop50
 90
       50
102
RTVSPost2010PropOp50
 70
     1
102
RTVSPost2010Prop51ColorIndex
 90
      256
102
RTVSPost2010Prop51ColorRGB
 90
-16777216
102
RTVSPost2010PropOp51
 70
     0
102
RTVSPost2010Prop52
140
1.0
102
RTVSPost2010PropOp52
 70
     0
102
RTVSPost2010Prop53
 90
        2
102
RTVSPost2010PropOp53
 70
     1
102
RTVSPost2010Prop54
  1
strokes_ogs.tif
102
RTVSPost2010PropOp54
 70
     1
102
RTVSPost2010Prop55
280
     0
102
RTVSPost2010PropOp55
 70
     1
102
RTVSPost2010Prop56
140
1.0
102
RTVSPost2010PropOp56
 70
     1
102
RTVSPost2010Prop57
140
1.0
102
RTVSPost2010PropOp57
 70
     1
  0
XRECORD
  5
37E
102
{ACAD_REACTORS
330
37D
102
}
330
37D
100
AcDbXrecord
280
     1
102
RTVSPropertyOp0
 70
     0
102
RTVSPropertyOp1
 70
     0
102
RTVSPropertyOp2
 70
     0
102
RTVSPropertyOp3
 70
     0
102
RTVSPropertyOp4
 70
     0
102
RTVSPropertyOp5
 70
     0
102
RTVSPropertyOp6
 70
     0
102
RTVSPropertyOp7
 70
     0
102
RTVSPropertyOp8
 70
     0
102
RTVSPropertyOp9
 70
     0
102
RTVSPropertyOp10
 70
     0
102
RTVSPropertyOp11
 70
     0
102
RTVSPropertyOp12
 70
     0
102
RTVSPropertyOp13
 70
     0
102
RTVSPropertyOp14
 70
     2
102
RTVSPropertyOp15
 70
     0
102
RTVSPropertyOp16
 70
     0
102
RTVSPropertyOp17
 70
     0
102
RTVSPropertyOp18
 70
     0
102
RTVSPropertyOp19
 70
     0
102
RTVSPropertyOp20
 70
     0
102
RTVSPropertyOp21
 70
     0
102
RTVSPropertyOp22
 70
     0
102
RTVSPropertyOp23
 70
     0
102
RTVSPropertyOp24
 70
     0
102
RTVSPropertyOp25
 70
     0
102
RTVSPropertyOp26
 70
     0
102
RTVSPropertyOp27
 70
     0
102
RTVSPropertyOp28
 70
     0
102
RTVSPropertyOp29
 70
     0
102
RTVSPropertyOp30
 70
     0
102
RTVSPropertyOp31
 70
     0
102
RTVSPropertyOp32
 70
     0
102
RTVSPropertyOp33
 70
     0
102
RTVSPropertyOp34
 70
     0
102
RTVSPropertyOp35
 70
     0
102
RTVSPropertyOp36
 70
     0
102
RTVSPropertyOp37
 70
     0
102
RTVSPropertyOp38
 70
     0
102
RTVSPropertyOp39
 70
     0
102
RTVSPropertyOp40
 70
     0
102
RTVSPropertyOp41
 70
     0
102
RTVSPropertyOp42
 70
     0
102
RTVSPropertyOp43
 70
     0
102
RTVSPropertyOp44
 70
     0
102
RTVSPropertyOp45
 70
     0
102
RTVSPropertyOp46
 70
     0
102
RTVSPropertyOp47
 70
     0
102
RTVSPropertyOp48
 70
     0
102
RTVSPropertyOp49
 70
     0
102
RTVSPropertyOp50
 70
     0
102
RTVSPropertyOp51
 70
     0
102
RTVSPropertyOp52
 70
     0
102
RTVSPropertyOp53
 70
     0
102
RTVSPropertyOp54
 70
     0
102
RTVSPropertyOp55
 70
     0
102
RTVSPropertyOp56
 70
     0
102
RTVSPropertyOp57
 70
     0
102
RTVSPost2010Prop28
280
     0
102
RTVSPost2010PropOp28
 70
     0
102
RTVSPost2010Prop29
280
     1
102
RTVSPost2010PropOp29
 70
     0
102
RTVSPost2010Prop30
280
     1
102
RTVSPost2010PropOp30
 70
     0
102
RTVSPost2010Prop31
280
     0
102
RTVSPost2010PropOp31
 70
     0
102
RTVSPost2010Prop32
280
     0
102
RTVSPost2010PropOp32
 70
     0
102
RTVSPost2010Prop33
280
     0
102
RTVSPost2010PropOp33
 70
     0
102
RTVSPost2010Prop34
280
     0
102
RTVSPost2010PropOp34
 70
     0
102
RTVSPost2010Prop35
280
     0
102
RTVSPost2010PropOp35
 70
     0
102
RTVSPost2010Prop36
280
     0
102
RTVSPost2010PropOp36
 70
     0
102
RTVSPost2010Prop37
 90
       50
102
RTVSPost2010PropOp37
 70
     0
102
RTVSPost2010Prop38
140
0.0
102
RTVSPost2010PropOp38
 70
     0
102
RTVSPost2010Prop39
140
1.0
102
RTVSPost2010PropOp39
 70
     0
102
RTVSPost2010Prop40
 90
        0
102
RTVSPost2010PropOp40
 70
     0
102
RTVSPost2010Prop41ColorIndex
 90
       18
102
RTVSPost2010Prop41ColorRGB
 90
        0
102
RTVSPost2010PropOp41
 70
     0
102
RTVSPost2010Prop42
 90
       50
102
RTVSPost2010PropOp42
 70
     0
102
RTVSPost2010Prop43
 90
        3
102
RTVSPost2010PropOp43
 70
     0
102
RTVSPost2010Prop44ColorIndex
 90
        5
102
RTVSPost2010Prop44ColorRGB
 90
      255
102
RTVSPost2010PropOp44
 70
     0
102
RTVSPost2010Prop45
280
     0
102
RTVSPost2010PropOp45
 70
     0
102
RTVSPost2010Prop46
 90
       50
102
RTVSPost2010PropOp46
 70
     0
102
RTVSPost2010Prop47
 90
       50
102
RTVSPost2010PropOp47
 70
     0
102
RTVSPost2010Prop48
 90
       50
102
RTVSPost2010PropOp48
 70
     0
102
RTVSPost2010Prop49
280
     0
102
RTVSPost2010PropOp49
 70
     0
102
RTVSPost2010Prop50
 90
       50
102
RTVSPost2010PropOp50
 70
     0
102
RTVSPost2010Prop51ColorIndex
 90
      256
102
RTVSPost2010Prop51ColorRGB
 90
-16777216
102
RTVSPost2010PropOp51
 70
     0
102
RTVSPost2010Prop52
140
1.0
102
RTVSPost2010PropOp52
 70
     0
102
RTVSPost2010Prop53
 90
        2
102
RTVSPost2010PropOp53
 70
     0
102
RTVSPost2010Prop54
  1
strokes_ogs.tif
102
RTVSPost2010PropOp54
 70
     0
102
RTVSPost2010Prop55
280
     0
102
RTVSPost2010PropOp55
 70
     0
102
RTVSPost2010Prop56
140
1.0
102
RTVSPost2010PropOp56
 70
     0
102
RTVSPost2010Prop57
140
1.0
102
RTVSPost2010PropOp57
 70
     0
  0
XRECORD
  5
376
102
{ACAD_REACTORS
330
375
102
}
330
375
100
AcDbXrecord
280
     1
102
RTVSPropertyOp0
 70
     1
102
RTVSPropertyOp1
 70
     1
102
RTVSPropertyOp2
 70
     1
102
RTVSPropertyOp3
 70
     1
102
RTVSPropertyOp4
 70
     1
102
RTVSPropertyOp5
 70
     1
102
RTVSPropertyOp6
 70
     1
102
RTVSPropertyOp7
 70
     1
102
RTVSPropertyOp8
 70
     1
102
RTVSPropertyOp9
 70
     1
102
RTVSPropertyOp10
 70
     1
102
RTVSPropertyOp11
 70
     1
102
RTVSPropertyOp12
 70
     1
102
RTVSPropertyOp13
 70
     1
102
RTVSPropertyOp14
 70
     1
102
RTVSPropertyOp15
 70
     1
102
RTVSPropertyOp16
 70
     1
102
RTVSPropertyOp17
 70
     1
102
RTVSPropertyOp18
 70
     1
102
RTVSPropertyOp19
 70
     1
102
RTVSPropertyOp20
 70
     1
102
RTVSPropertyOp21
 70
     1
102
RTVSPropertyOp22
 70
     1
102
RTVSPropertyOp23
 70
     1
102
RTVSPropertyOp24
 70
     1
102
RTVSPropertyOp25
 70
     1
102
RTVSPropertyOp26
 70
     1
102
RTVSPropertyOp27
 70
     1
102
RTVSPropertyOp28
 70
     1
102
RTVSPropertyOp29
 70
     1
102
RTVSPropertyOp30
 70
     1
102
RTVSPropertyOp31
 70
     1
102
RTVSPropertyOp32
 70
     1
102
RTVSPropertyOp33
 70
     1
102
RTVSPropertyOp34
 70
     1
102
RTVSPropertyOp35
 70
     1
102
RTVSPropertyOp36
 70
     1
102
RTVSPropertyOp37
 70
     1
102
RTVSPropertyOp38
 70
     1
102
RTVSPropertyOp39
 70
     1
102
RTVSPropertyOp40
 70
     1
102
RTVSPropertyOp41
 70
     1
102
RTVSPropertyOp42
 70
     1
102
RTVSPropertyOp43
 70
     1
102
RTVSPropertyOp44
 70
     1
102
RTVSPropertyOp45
 70
     1
102
RTVSPropertyOp46
 70
     1
102
RTVSPropertyOp47
 70
     1
102
RTVSPropertyOp48
 70
     1
102
RTVSPropertyOp49
 70
     1
102
RTVSPropertyOp50
 70
     1
102
RTVSPropertyOp51
 70
     0
102
RTVSPropertyOp52
 70
     0
102
RTVSPropertyOp53
 70
     1
102
RTVSPropertyOp54
 70
     1
102
RTVSPropertyOp55
 70
     1
102
RTVSPropertyOp56
 70
     1
102
RTVSPropertyOp57
 70
     1
102
RTVSPost2010Prop28
280
     0
102
RTVSPost2010PropOp28
 70
     1
102
RTVSPost2010Prop29
280
     1
102
RTVSPost2010PropOp29
 70
     1
102
RTVSPost2010Prop30
280
     1
102
RTVSPost2010PropOp30
 70
     1
102
RTVSPost2010Prop31
280
     0
102
RTVSPost2010PropOp31
 70
     1
102
RTVSPost2010Prop32
280
     0
102
RTVSPost2010PropOp32
 70
     1
102
RTVSPost2010Prop33
280
     0
102
RTVSPost2010PropOp33
 70
     1
102
RTVSPost2010Prop34
280
     0
102
RTVSPost2010PropOp34
 70
     1
102
RTVSPost2010Prop35
280
     0
102
RTVSPost2010PropOp35
 70
     1
102
RTVSPost2010Prop36
280
     0
102
RTVSPost2010PropOp36
 70
     1
102
RTVSPost2010Prop37
 90
       50
102
RTVSPost2010PropOp37
 70
     1
102
RTVSPost2010Prop38
140
0.0
102
RTVSPost2010PropOp38
 70
     1
102
RTVSPost2010Prop39
140
1.0
102
RTVSPost2010PropOp39
 70
     1
102
RTVSPost2010Prop40
 90
        0
102
RTVSPost2010PropOp40
 70
     1
102
RTVSPost2010Prop41ColorIndex
 90
       18
102
RTVSPost2010Prop41ColorRGB
 90
        0
102
RTVSPost2010PropOp41
 70
     1
102
RTVSPost2010Prop42
 90
       50
102
RTVSPost2010PropOp42
 70
     1
102
RTVSPost2010Prop43
 90
        3
102
RTVSPost2010PropOp43
 70
     1
102
RTVSPost2010Prop44ColorIndex
 90
        5
102
RTVSPost2010Prop44ColorRGB
 90
      255
102
RTVSPost2010PropOp44
 70
     1
102
RTVSPost2010Prop45
280
     0
102
RTVSPost2010PropOp45
 70
     1
102
RTVSPost2010Prop46
 90
       50
102
RTVSPost2010PropOp46
 70
     1
102
RTVSPost2010Prop47
 90
       50
102
RTVSPost2010PropOp47
 70
     1
102
RTVSPost2010Prop48
 90
       50
102
RTVSPost2010PropOp48
 70
     1
102
RTVSPost2010Prop49
280
     0
102
RTVSPost2010PropOp49
 70
     1
102
RTVSPost2010Prop50
 90
       50
102
RTVSPost2010PropOp50
 70
     1
102
RTVSPost2010Prop51ColorIndex
 90
      256
102
RTVSPost2010Prop51ColorRGB
 90
-16777216
102
RTVSPost2010PropOp51
 70
     0
102
RTVSPost2010Prop52
140
1.0
102
RTVSPost2010PropOp52
 70
     0
102
RTVSPost2010Prop53
 90
        2
102
RTVSPost2010PropOp53
 70
     1
102
RTVSPost2010Prop54
  1
strokes_ogs.tif
102
RTVSPost2010PropOp54
 70
     1
102
RTVSPost2010Prop55
280
     0
102
RTVSPost2010PropOp55
 70
     1
102
RTVSPost2010Prop56
140
1.0
102
RTVSPost2010PropOp56
 70
     1
102
RTVSPost2010Prop57
140
1.0
102
RTVSPost2010PropOp57
 70
     1
  0
XRECORD
  5
35A
102
{ACAD_REACTORS
330
359
102
}
330
359
100
AcDbXrecord
280
     1
102
RTVSPropertyOp0
 70
     1
102
RTVSPropertyOp1
 70
     1
102
RTVSPropertyOp2
 70
     1
102
RTVSPropertyOp3
 70
     1
102
RTVSPropertyOp4
 70
     1
102
RTVSPropertyOp5
 70
     1
102
RTVSPropertyOp6
 70
     1
102
RTVSPropertyOp7
 70
     1
102
RTVSPropertyOp8
 70
     1
102
RTVSPropertyOp9
 70
     1
102
RTVSPropertyOp10
 70
     1
102
RTVSPropertyOp11
 70
     1
102
RTVSPropertyOp12
 70
     1
102
RTVSPropertyOp13
 70
     1
102
RTVSPropertyOp14
 70
     1
102
RTVSPropertyOp15
 70
     1
102
RTVSPropertyOp16
 70
     1
102
RTVSPropertyOp17
 70
     1
102
RTVSPropertyOp18
 70
     1
102
RTVSPropertyOp19
 70
     1
102
RTVSPropertyOp20
 70
     1
102
RTVSPropertyOp21
 70
     1
102
RTVSPropertyOp22
 70
     1
102
RTVSPropertyOp23
 70
     1
102
RTVSPropertyOp24
 70
     1
102
RTVSPropertyOp25
 70
     1
102
RTVSPropertyOp26
 70
     1
102
RTVSPropertyOp27
 70
     1
102
RTVSPropertyOp28
 70
     1
102
RTVSPropertyOp29
 70
     1
102
RTVSPropertyOp30
 70
     1
102
RTVSPropertyOp31
 70
     1
102
RTVSPropertyOp32
 70
     1
102
RTVSPropertyOp33
 70
     1
102
RTVSPropertyOp34
 70
     1
102
RTVSPropertyOp35
 70
     1
102
RTVSPropertyOp36
 70
     1
102
RTVSPropertyOp37
 70
     1
102
RTVSPropertyOp38
 70
     1
102
RTVSPropertyOp39
 70
     1
102
RTVSPropertyOp40
 70
     1
102
RTVSPropertyOp41
 70
     1
102
RTVSPropertyOp42
 70
     1
102
RTVSPropertyOp43
 70
     1
102
RTVSPropertyOp44
 70
     1
102
RTVSPropertyOp45
 70
     1
102
RTVSPropertyOp46
 70
     1
102
RTVSPropertyOp47
 70
     1
102
RTVSPropertyOp48
 70
     1
102
RTVSPropertyOp49
 70
     1
102
RTVSPropertyOp50
 70
     1
102
RTVSPropertyOp51
 70
     0
102
RTVSPropertyOp52
 70
     0
102
RTVSPropertyOp53
 70
     1
102
RTVSPropertyOp54
 70
     1
102
RTVSPropertyOp55
 70
     1
102
RTVSPropertyOp56
 70
     1
102
RTVSPropertyOp57
 70
     1
102
RTVSPost2010Prop28
280
     0
102
RTVSPost2010PropOp28
 70
     1
102
RTVSPost2010Prop29
280
     1
102
RTVSPost2010PropOp29
 70
     1
102
RTVSPost2010Prop30
280
     1
102
RTVSPost2010PropOp30
 70
     1
102
RTVSPost2010Prop31
280
     0
102
RTVSPost2010PropOp31
 70
     1
102
RTVSPost2010Prop32
280
     0
102
RTVSPost2010PropOp32
 70
     1
102
RTVSPost2010Prop33
280
     0
102
RTVSPost2010PropOp33
 70
     1
102
RTVSPost2010Prop34
280
     0
102
RTVSPost2010PropOp34
 70
     1
102
RTVSPost2010Prop35
280
     0
102
RTVSPost2010PropOp35
 70
     1
102
RTVSPost2010Prop36
280
     0
102
RTVSPost2010PropOp36
 70
     1
102
RTVSPost2010Prop37
 90
       50
102
RTVSPost2010PropOp37
 70
     1
102
RTVSPost2010Prop38
140
0.0
102
RTVSPost2010PropOp38
 70
     1
102
RTVSPost2010Prop39
140
1.0
102
RTVSPost2010PropOp39
 70
     1
102
RTVSPost2010Prop40
 90
        0
102
RTVSPost2010PropOp40
 70
     1
102
RTVSPost2010Prop41ColorIndex
 90
       18
102
RTVSPost2010Prop41ColorRGB
 90
        0
102
RTVSPost2010PropOp41
 70
     1
102
RTVSPost2010Prop42
 90
       50
102
RTVSPost2010PropOp42
 70
     1
102
RTVSPost2010Prop43
 90
        3
102
RTVSPost2010PropOp43
 70
     1
102
RTVSPost2010Prop44ColorIndex
 90
        5
102
RTVSPost2010Prop44ColorRGB
 90
      255
102
RTVSPost2010PropOp44
 70
     1
102
RTVSPost2010Prop45
280
     0
102
RTVSPost2010PropOp45
 70
     1
102
RTVSPost2010Prop46
 90
       50
102
RTVSPost2010PropOp46
 70
     1
102
RTVSPost2010Prop47
 90
       50
102
RTVSPost2010PropOp47
 70
     1
102
RTVSPost2010Prop48
 90
       50
102
RTVSPost2010PropOp48
 70
     1
102
RTVSPost2010Prop49
280
     0
102
RTVSPost2010PropOp49
 70
     1
102
RTVSPost2010Prop50
 90
       50
102
RTVSPost2010PropOp50
 70
     1
102
RTVSPost2010Prop51ColorIndex
 90
      256
102
RTVSPost2010Prop51ColorRGB
 90
-16777216
102
RTVSPost2010PropOp51
 70
     0
102
RTVSPost2010Prop52
140
1.0
102
RTVSPost2010PropOp52
 70
     0
102
RTVSPost2010Prop53
 90
        2
102
RTVSPost2010PropOp53
 70
     1
102
RTVSPost2010Prop54
  1
strokes_ogs.tif
102
RTVSPost2010PropOp54
 70
     1
102
RTVSPost2010Prop55
280
     0
102
RTVSPost2010PropOp55
 70
     1
102
RTVSPost2010Prop56
140
1.0
102
RTVSPost2010PropOp56
 70
     1
102
RTVSPost2010Prop57
140
1.0
102
RTVSPost2010PropOp57
 70
     1
  0
XRECORD
  5
35C
102
{ACAD_REACTORS
330
35B
102
}
330
35B
100
AcDbXrecord
280
     1
102
RTVSPropertyOp0
 70
     1
102
RTVSPropertyOp1
 70
     1
102
RTVSPropertyOp2
 70
     1
102
RTVSPropertyOp3
 70
     1
102
RTVSPropertyOp4
 70
     1
102
RTVSPropertyOp5
 70
     1
102
RTVSPropertyOp6
 70
     1
102
RTVSPropertyOp7
 70
     1
102
RTVSPropertyOp8
 70
     1
102
RTVSPropertyOp9
 70
     1
102
RTVSPropertyOp10
 70
     1
102
RTVSPropertyOp11
 70
     1
102
RTVSPropertyOp12
 70
     1
102
RTVSPropertyOp13
 70
     1
102
RTVSPropertyOp14
 70
     1
102
RTVSPropertyOp15
 70
     1
102
RTVSPropertyOp16
 70
     1
102
RTVSPropertyOp17
 70
     1
102
RTVSPropertyOp18
 70
     1
102
RTVSPropertyOp19
 70
     1
102
RTVSPropertyOp20
 70
     1
102
RTVSPropertyOp21
 70
     1
102
RTVSPropertyOp22
 70
     1
102
RTVSPropertyOp23
 70
     1
102
RTVSPropertyOp24
 70
     1
102
RTVSPropertyOp25
 70
     1
102
RTVSPropertyOp26
 70
     1
102
RTVSPropertyOp27
 70
     1
102
RTVSPropertyOp28
 70
     1
102
RTVSPropertyOp29
 70
     1
102
RTVSPropertyOp30
 70
     1
102
RTVSPropertyOp31
 70
     1
102
RTVSPropertyOp32
 70
     1
102
RTVSPropertyOp33
 70
     1
102
RTVSPropertyOp34
 70
     1
102
RTVSPropertyOp35
 70
     1
102
RTVSPropertyOp36
 70
     1
102
RTVSPropertyOp37
 70
     1
102
RTVSPropertyOp38
 70
     1
102
RTVSPropertyOp39
 70
     1
102
RTVSPropertyOp40
 70
     1
102
RTVSPropertyOp41
 70
     1
102
RTVSPropertyOp42
 70
     1
102
RTVSPropertyOp43
 70
     1
102
RTVSPropertyOp44
 70
     1
102
RTVSPropertyOp45
 70
     1
102
RTVSPropertyOp46
 70
     1
102
RTVSPropertyOp47
 70
     1
102
RTVSPropertyOp48
 70
     1
102
RTVSPropertyOp49
 70
     1
102
RTVSPropertyOp50
 70
     1
102
RTVSPropertyOp51
 70
     0
102
RTVSPropertyOp52
 70
     0
102
RTVSPropertyOp53
 70
     1
102
RTVSPropertyOp54
 70
     1
102
RTVSPropertyOp55
 70
     1
102
RTVSPropertyOp56
 70
     1
102
RTVSPropertyOp57
 70
     1
102
RTVSPost2010Prop28
280
     0
102
RTVSPost2010PropOp28
 70
     1
102
RTVSPost2010Prop29
280
     1
102
RTVSPost2010PropOp29
 70
     1
102
RTVSPost2010Prop30
280
     1
102
RTVSPost2010PropOp30
 70
     1
102
RTVSPost2010Prop31
280
     0
102
RTVSPost2010PropOp31
 70
     1
102
RTVSPost2010Prop32
280
     0
102
RTVSPost2010PropOp32
 70
     1
102
RTVSPost2010Prop33
280
     0
102
RTVSPost2010PropOp33
 70
     1
102
RTVSPost2010Prop34
280
     0
102
RTVSPost2010PropOp34
 70
     1
102
RTVSPost2010Prop35
280
     0
102
RTVSPost2010PropOp35
 70
     1
102
RTVSPost2010Prop36
280
     0
102
RTVSPost2010PropOp36
 70
     1
102
RTVSPost2010Prop37
 90
       50
102
RTVSPost2010PropOp37
 70
     1
102
RTVSPost2010Prop38
140
0.0
102
RTVSPost2010PropOp38
 70
     1
102
RTVSPost2010Prop39
140
1.0
102
RTVSPost2010PropOp39
 70
     1
102
RTVSPost2010Prop40
 90
        0
102
RTVSPost2010PropOp40
 70
     1
102
RTVSPost2010Prop41ColorIndex
 90
       18
102
RTVSPost2010Prop41ColorRGB
 90
        0
102
RTVSPost2010PropOp41
 70
     1
102
RTVSPost2010Prop42
 90
       50
102
RTVSPost2010PropOp42
 70
     1
102
RTVSPost2010Prop43
 90
        3
102
RTVSPost2010PropOp43
 70
     1
102
RTVSPost2010Prop44ColorIndex
 90
        5
102
RTVSPost2010Prop44ColorRGB
 90
      255
102
RTVSPost2010PropOp44
 70
     1
102
RTVSPost2010Prop45
280
     0
102
RTVSPost2010PropOp45
 70
     1
102
RTVSPost2010Prop46
 90
       50
102
RTVSPost2010PropOp46
 70
     1
102
RTVSPost2010Prop47
 90
       50
102
RTVSPost2010PropOp47
 70
     1
102
RTVSPost2010Prop48
 90
       50
102
RTVSPost2010PropOp48
 70
     1
102
RTVSPost2010Prop49
280
     0
102
RTVSPost2010PropOp49
 70
     1
102
RTVSPost2010Prop50
 90
       50
102
RTVSPost2010PropOp50
 70
     1
102
RTVSPost2010Prop51ColorIndex
 90
      256
102
RTVSPost2010Prop51ColorRGB
 90
-16777216
102
RTVSPost2010PropOp51
 70
     0
102
RTVSPost2010Prop52
140
1.0
102
RTVSPost2010PropOp52
 70
     0
102
RTVSPost2010Prop53
 90
        2
102
RTVSPost2010PropOp53
 70
     1
102
RTVSPost2010Prop54
  1
strokes_ogs.tif
102
RTVSPost2010PropOp54
 70
     1
102
RTVSPost2010Prop55
280
     0
102
RTVSPost2010PropOp55
 70
     1
102
RTVSPost2010Prop56
140
1.0
102
RTVSPost2010PropOp56
 70
     1
102
RTVSPost2010Prop57
140
1.0
102
RTVSPost2010PropOp57
 70
     1
  0
XRECORD
  5
35E
102
{ACAD_REACTORS
330
35D
102
}
330
35D
100
AcDbXrecord
280
     1
102
RTVSPropertyOp0
 70
     1
102
RTVSPropertyOp1
 70
     1
102
RTVSPropertyOp2
 70
     1
102
RTVSPropertyOp3
 70
     1
102
RTVSPropertyOp4
 70
     1
102
RTVSPropertyOp5
 70
     1
102
RTVSPropertyOp6
 70
     1
102
RTVSPropertyOp7
 70
     1
102
RTVSPropertyOp8
 70
     1
102
RTVSPropertyOp9
 70
     1
102
RTVSPropertyOp10
 70
     1
102
RTVSPropertyOp11
 70
     1
102
RTVSPropertyOp12
 70
     1
102
RTVSPropertyOp13
 70
     1
102
RTVSPropertyOp14
 70
     1
102
RTVSPropertyOp15
 70
     1
102
RTVSPropertyOp16
 70
     1
102
RTVSPropertyOp17
 70
     1
102
RTVSPropertyOp18
 70
     1
102
RTVSPropertyOp19
 70
     1
102
RTVSPropertyOp20
 70
     1
102
RTVSPropertyOp21
 70
     1
102
RTVSPropertyOp22
 70
     1
102
RTVSPropertyOp23
 70
     1
102
RTVSPropertyOp24
 70
     1
102
RTVSPropertyOp25
 70
     1
102
RTVSPropertyOp26
 70
     1
102
RTVSPropertyOp27
 70
     1
102
RTVSPropertyOp28
 70
     1
102
RTVSPropertyOp29
 70
     1
102
RTVSPropertyOp30
 70
     1
102
RTVSPropertyOp31
 70
     1
102
RTVSPropertyOp32
 70
     1
102
RTVSPropertyOp33
 70
     1
102
RTVSPropertyOp34
 70
     1
102
RTVSPropertyOp35
 70
     1
102
RTVSPropertyOp36
 70
     1
102
RTVSPropertyOp37
 70
     1
102
RTVSPropertyOp38
 70
     1
102
RTVSPropertyOp39
 70
     1
102
RTVSPropertyOp40
 70
     1
102
RTVSPropertyOp41
 70
     1
102
RTVSPropertyOp42
 70
     1
102
RTVSPropertyOp43
 70
     1
102
RTVSPropertyOp44
 70
     1
102
RTVSPropertyOp45
 70
     1
102
RTVSPropertyOp46
 70
     1
102
RTVSPropertyOp47
 70
     1
102
RTVSPropertyOp48
 70
     1
102
RTVSPropertyOp49
 70
     1
102
RTVSPropertyOp50
 70
     1
102
RTVSPropertyOp51
 70
     0
102
RTVSPropertyOp52
 70
     0
102
RTVSPropertyOp53
 70
     1
102
RTVSPropertyOp54
 70
     1
102
RTVSPropertyOp55
 70
     1
102
RTVSPropertyOp56
 70
     1
102
RTVSPropertyOp57
 70
     1
102
RTVSPost2010Prop28
280
     0
102
RTVSPost2010PropOp28
 70
     1
102
RTVSPost2010Prop29
280
     1
102
RTVSPost2010PropOp29
 70
     1
102
RTVSPost2010Prop30
280
     1
102
RTVSPost2010PropOp30
 70
     1
102
RTVSPost2010Prop31
280
     0
102
RTVSPost2010PropOp31
 70
     1
102
RTVSPost2010Prop32
280
     0
102
RTVSPost2010PropOp32
 70
     1
102
RTVSPost2010Prop33
280
     0
102
RTVSPost2010PropOp33
 70
     1
102
RTVSPost2010Prop34
280
     0
102
RTVSPost2010PropOp34
 70
     1
102
RTVSPost2010Prop35
280
     0
102
RTVSPost2010PropOp35
 70
     1
102
RTVSPost2010Prop36
280
     0
102
RTVSPost2010PropOp36
 70
     1
102
RTVSPost2010Prop37
 90
       50
102
RTVSPost2010PropOp37
 70
     1
102
RTVSPost2010Prop38
140
0.0
102
RTVSPost2010PropOp38
 70
     1
102
RTVSPost2010Prop39
140
1.0
102
RTVSPost2010PropOp39
 70
     1
102
RTVSPost2010Prop40
 90
        0
102
RTVSPost2010PropOp40
 70
     1
102
RTVSPost2010Prop41ColorIndex
 90
       18
102
RTVSPost2010Prop41ColorRGB
 90
        0
102
RTVSPost2010PropOp41
 70
     1
102
RTVSPost2010Prop42
 90
       50
102
RTVSPost2010PropOp42
 70
     1
102
RTVSPost2010Prop43
 90
        3
102
RTVSPost2010PropOp43
 70
     1
102
RTVSPost2010Prop44ColorIndex
 90
        5
102
RTVSPost2010Prop44ColorRGB
 90
      255
102
RTVSPost2010PropOp44
 70
     1
102
RTVSPost2010Prop45
280
     0
102
RTVSPost2010PropOp45
 70
     1
102
RTVSPost2010Prop46
 90
       50
102
RTVSPost2010PropOp46
 70
     1
102
RTVSPost2010Prop47
 90
       50
102
RTVSPost2010PropOp47
 70
     1
102
RTVSPost2010Prop48
 90
       50
102
RTVSPost2010PropOp48
 70
     1
102
RTVSPost2010Prop49
280
     0
102
RTVSPost2010PropOp49
 70
     1
102
RTVSPost2010Prop50
 90
       50
102
RTVSPost2010PropOp50
 70
     1
102
RTVSPost2010Prop51ColorIndex
 90
      256
102
RTVSPost2010Prop51ColorRGB
 90
-16777216
102
RTVSPost2010PropOp51
 70
     0
102
RTVSPost2010Prop52
140
1.0
102
RTVSPost2010PropOp52
 70
     0
102
RTVSPost2010Prop53
 90
        2
102
RTVSPost2010PropOp53
 70
     1
102
RTVSPost2010Prop54
  1
strokes_ogs.tif
102
RTVSPost2010PropOp54
 70
     1
102
RTVSPost2010Prop55
280
     0
102
RTVSPost2010PropOp55
 70
     1
102
RTVSPost2010Prop56
140
1.0
102
RTVSPost2010PropOp56
 70
     1
102
RTVSPost2010Prop57
140
1.0
102
RTVSPost2010PropOp57
 70
     1
  0
XRECORD
  5
360
102
{ACAD_REACTORS
330
35F
102
}
330
35F
100
AcDbXrecord
280
     1
102
RTVSPropertyOp0
 70
     1
102
RTVSPropertyOp1
 70
     1
102
RTVSPropertyOp2
 70
     1
102
RTVSPropertyOp3
 70
     1
102
RTVSPropertyOp4
 70
     1
102
RTVSPropertyOp5
 70
     1
102
RTVSPropertyOp6
 70
     1
102
RTVSPropertyOp7
 70
     1
102
RTVSPropertyOp8
 70
     1
102
RTVSPropertyOp9
 70
     1
102
RTVSPropertyOp10
 70
     1
102
RTVSPropertyOp11
 70
     1
102
RTVSPropertyOp12
 70
     1
102
RTVSPropertyOp13
 70
     1
102
RTVSPropertyOp14
 70
     1
102
RTVSPropertyOp15
 70
     1
102
RTVSPropertyOp16
 70
     1
102
RTVSPropertyOp17
 70
     1
102
RTVSPropertyOp18
 70
     1
102
RTVSPropertyOp19
 70
     1
102
RTVSPropertyOp20
 70
     1
102
RTVSPropertyOp21
 70
     1
102
RTVSPropertyOp22
 70
     1
102
RTVSPropertyOp23
 70
     1
102
RTVSPropertyOp24
 70
     1
102
RTVSPropertyOp25
 70
     1
102
RTVSPropertyOp26
 70
     1
102
RTVSPropertyOp27
 70
     1
102
RTVSPropertyOp28
 70
     1
102
RTVSPropertyOp29
 70
     1
102
RTVSPropertyOp30
 70
     1
102
RTVSPropertyOp31
 70
     1
102
RTVSPropertyOp32
 70
     1
102
RTVSPropertyOp33
 70
     1
102
RTVSPropertyOp34
 70
     1
102
RTVSPropertyOp35
 70
     1
102
RTVSPropertyOp36
 70
     1
102
RTVSPropertyOp37
 70
     1
102
RTVSPropertyOp38
 70
     1
102
RTVSPropertyOp39
 70
     1
102
RTVSPropertyOp40
 70
     1
102
RTVSPropertyOp41
 70
     1
102
RTVSPropertyOp42
 70
     1
102
RTVSPropertyOp43
 70
     1
102
RTVSPropertyOp44
 70
     1
102
RTVSPropertyOp45
 70
     1
102
RTVSPropertyOp46
 70
     1
102
RTVSPropertyOp47
 70
     1
102
RTVSPropertyOp48
 70
     1
102
RTVSPropertyOp49
 70
     1
102
RTVSPropertyOp50
 70
     1
102
RTVSPropertyOp51
 70
     0
102
RTVSPropertyOp52
 70
     0
102
RTVSPropertyOp53
 70
     1
102
RTVSPropertyOp54
 70
     1
102
RTVSPropertyOp55
 70
     1
102
RTVSPropertyOp56
 70
     1
102
RTVSPropertyOp57
 70
     1
102
RTVSPost2010Prop28
280
     0
102
RTVSPost2010PropOp28
 70
     1
102
RTVSPost2010Prop29
280
     1
102
RTVSPost2010PropOp29
 70
     1
102
RTVSPost2010Prop30
280
     1
102
RTVSPost2010PropOp30
 70
     1
102
RTVSPost2010Prop31
280
     0
102
RTVSPost2010PropOp31
 70
     1
102
RTVSPost2010Prop32
280
     0
102
RTVSPost2010PropOp32
 70
     1
102
RTVSPost2010Prop33
280
     0
102
RTVSPost2010PropOp33
 70
     1
102
RTVSPost2010Prop34
280
     0
102
RTVSPost2010PropOp34
 70
     1
102
RTVSPost2010Prop35
280
     0
102
RTVSPost2010PropOp35
 70
     1
102
RTVSPost2010Prop36
280
     0
102
RTVSPost2010PropOp36
 70
     1
102
RTVSPost2010Prop37
 90
       50
102
RTVSPost2010PropOp37
 70
     1
102
RTVSPost2010Prop38
140
0.0
102
RTVSPost2010PropOp38
 70
     1
102
RTVSPost2010Prop39
140
1.0
102
RTVSPost2010PropOp39
 70
     1
102
RTVSPost2010Prop40
 90
        0
102
RTVSPost2010PropOp40
 70
     1
102
RTVSPost2010Prop41ColorIndex
 90
       18
102
RTVSPost2010Prop41ColorRGB
 90
        0
102
RTVSPost2010PropOp41
 70
     1
102
RTVSPost2010Prop42
 90
       50
102
RTVSPost2010PropOp42
 70
     1
102
RTVSPost2010Prop43
 90
        3
102
RTVSPost2010PropOp43
 70
     1
102
RTVSPost2010Prop44ColorIndex
 90
        5
102
RTVSPost2010Prop44ColorRGB
 90
      255
102
RTVSPost2010PropOp44
 70
     1
102
RTVSPost2010Prop45
280
     0
102
RTVSPost2010PropOp45
 70
     1
102
RTVSPost2010Prop46
 90
       50
102
RTVSPost2010PropOp46
 70
     1
102
RTVSPost2010Prop47
 90
       50
102
RTVSPost2010PropOp47
 70
     1
102
RTVSPost2010Prop48
 90
       50
102
RTVSPost2010PropOp48
 70
     1
102
RTVSPost2010Prop49
280
     0
102
RTVSPost2010PropOp49
 70
     1
102
RTVSPost2010Prop50
 90
       50
102
RTVSPost2010PropOp50
 70
     1
102
RTVSPost2010Prop51ColorIndex
 90
      256
102
RTVSPost2010Prop51ColorRGB
 90
-16777216
102
RTVSPost2010PropOp51
 70
     0
102
RTVSPost2010Prop52
140
1.0
102
RTVSPost2010PropOp52
 70
     0
102
RTVSPost2010Prop53
 90
        2
102
RTVSPost2010PropOp53
 70
     1
102
RTVSPost2010Prop54
  1
strokes_ogs.tif
102
RTVSPost2010PropOp54
 70
     1
102
RTVSPost2010Prop55
280
     0
102
RTVSPost2010PropOp55
 70
     1
102
RTVSPost2010Prop56
140
1.0
102
RTVSPost2010PropOp56
 70
     1
102
RTVSPost2010Prop57
140
1.0
102
RTVSPost2010PropOp57
 70
     1
  0
XRECORD
  5
366
102
{ACAD_REACTORS
330
365
102
}
330
365
100
AcDbXrecord
280
     1
102
RTVSPropertyOp0
 70
     1
102
RTVSPropertyOp1
 70
     1
102
RTVSPropertyOp2
 70
     1
102
RTVSPropertyOp3
 70
     1
102
RTVSPropertyOp4
 70
     1
102
RTVSPropertyOp5
 70
     1
102
RTVSPropertyOp6
 70
     1
102
RTVSPropertyOp7
 70
     1
102
RTVSPropertyOp8
 70
     1
102
RTVSPropertyOp9
 70
     1
102
RTVSPropertyOp10
 70
     1
102
RTVSPropertyOp11
 70
     1
102
RTVSPropertyOp12
 70
     1
102
RTVSPropertyOp13
 70
     1
102
RTVSPropertyOp14
 70
     1
102
RTVSPropertyOp15
 70
     1
102
RTVSPropertyOp16
 70
     1
102
RTVSPropertyOp17
 70
     1
102
RTVSPropertyOp18
 70
     1
102
RTVSPropertyOp19
 70
     1
102
RTVSPropertyOp20
 70
     1
102
RTVSPropertyOp21
 70
     1
102
RTVSPropertyOp22
 70
     1
102
RTVSPropertyOp23
 70
     1
102
RTVSPropertyOp24
 70
     1
102
RTVSPropertyOp25
 70
     1
102
RTVSPropertyOp26
 70
     1
102
RTVSPropertyOp27
 70
     1
102
RTVSPropertyOp28
 70
     1
102
RTVSPropertyOp29
 70
     1
102
RTVSPropertyOp30
 70
     1
102
RTVSPropertyOp31
 70
     1
102
RTVSPropertyOp32
 70
     1
102
RTVSPropertyOp33
 70
     1
102
RTVSPropertyOp34
 70
     1
102
RTVSPropertyOp35
 70
     1
102
RTVSPropertyOp36
 70
     1
102
RTVSPropertyOp37
 70
     1
102
RTVSPropertyOp38
 70
     1
102
RTVSPropertyOp39
 70
     1
102
RTVSPropertyOp40
 70
     1
102
RTVSPropertyOp41
 70
     1
102
RTVSPropertyOp42
 70
     1
102
RTVSPropertyOp43
 70
     1
102
RTVSPropertyOp44
 70
     1
102
RTVSPropertyOp45
 70
     1
102
RTVSPropertyOp46
 70
     1
102
RTVSPropertyOp47
 70
     1
102
RTVSPropertyOp48
 70
     1
102
RTVSPropertyOp49
 70
     1
102
RTVSPropertyOp50
 70
     1
102
RTVSPropertyOp51
 70
     0
102
RTVSPropertyOp52
 70
     0
102
RTVSPropertyOp53
 70
     1
102
RTVSPropertyOp54
 70
     1
102
RTVSPropertyOp55
 70
     1
102
RTVSPropertyOp56
 70
     1
102
RTVSPropertyOp57
 70
     1
102
RTVSPost2010Prop28
280
     0
102
RTVSPost2010PropOp28
 70
     1
102
RTVSPost2010Prop29
280
     1
102
RTVSPost2010PropOp29
 70
     1
102
RTVSPost2010Prop30
280
     1
102
RTVSPost2010PropOp30
 70
     1
102
RTVSPost2010Prop31
280
     0
102
RTVSPost2010PropOp31
 70
     1
102
RTVSPost2010Prop32
280
     0
102
RTVSPost2010PropOp32
 70
     1
102
RTVSPost2010Prop33
280
     0
102
RTVSPost2010PropOp33
 70
     1
102
RTVSPost2010Prop34
280
     0
102
RTVSPost2010PropOp34
 70
     1
102
RTVSPost2010Prop35
280
     0
102
RTVSPost2010PropOp35
 70
     1
102
RTVSPost2010Prop36
280
     0
102
RTVSPost2010PropOp36
 70
     1
102
RTVSPost2010Prop37
 90
       50
102
RTVSPost2010PropOp37
 70
     1
102
RTVSPost2010Prop38
140
0.0
102
RTVSPost2010PropOp38
 70
     1
102
RTVSPost2010Prop39
140
1.0
102
RTVSPost2010PropOp39
 70
     1
102
RTVSPost2010Prop40
 90
        0
102
RTVSPost2010PropOp40
 70
     1
102
RTVSPost2010Prop41ColorIndex
 90
       18
102
RTVSPost2010Prop41ColorRGB
 90
        0
102
RTVSPost2010PropOp41
 70
     1
102
RTVSPost2010Prop42
 90
       50
102
RTVSPost2010PropOp42
 70
     1
102
RTVSPost2010Prop43
 90
        3
102
RTVSPost2010PropOp43
 70
     1
102
RTVSPost2010Prop44ColorIndex
 90
        5
102
RTVSPost2010Prop44ColorRGB
 90
      255
102
RTVSPost2010PropOp44
 70
     1
102
RTVSPost2010Prop45
280
     0
102
RTVSPost2010PropOp45
 70
     1
102
RTVSPost2010Prop46
 90
       50
102
RTVSPost2010PropOp46
 70
     1
102
RTVSPost2010Prop47
 90
       50
102
RTVSPost2010PropOp47
 70
     1
102
RTVSPost2010Prop48
 90
       50
102
RTVSPost2010PropOp48
 70
     1
102
RTVSPost2010Prop49
280
     0
102
RTVSPost2010PropOp49
 70
     1
102
RTVSPost2010Prop50
 90
       50
102
RTVSPost2010PropOp50
 70
     1
102
RTVSPost2010Prop51ColorIndex
 90
      256
102
RTVSPost2010Prop51ColorRGB
 90
-16777216
102
RTVSPost2010PropOp51
 70
     0
102
RTVSPost2010Prop52
140
1.0
102
RTVSPost2010PropOp52
 70
     0
102
RTVSPost2010Prop53
 90
        2
102
RTVSPost2010PropOp53
 70
     1
102
RTVSPost2010Prop54
  1
strokes_ogs.tif
102
RTVSPost2010PropOp54
 70
     1
102
RTVSPost2010Prop55
280
     0
102
RTVSPost2010PropOp55
 70
     1
102
RTVSPost2010Prop56
140
1.0
102
RTVSPost2010PropOp56
 70
     1
102
RTVSPost2010Prop57
140
1.0
102
RTVSPost2010PropOp57
 70
     1
  0
XRECORD
  5
37A
102
{ACAD_REACTORS
330
379
102
}
330
379
100
AcDbXrecord
280
     1
102
RTVSPropertyOp0
 70
     0
102
RTVSPropertyOp1
 70
     0
102
RTVSPropertyOp2
 70
     0
102
RTVSPropertyOp3
 70
     0
102
RTVSPropertyOp4
 70
     0
102
RTVSPropertyOp5
 70
     0
102
RTVSPropertyOp6
 70
     0
102
RTVSPropertyOp7
 70
     0
102
RTVSPropertyOp8
 70
     0
102
RTVSPropertyOp9
 70
     0
102
RTVSPropertyOp10
 70
     0
102
RTVSPropertyOp11
 70
     0
102
RTVSPropertyOp12
 70
     0
102
RTVSPropertyOp13
 70
     0
102
RTVSPropertyOp14
 70
     2
102
RTVSPropertyOp15
 70
     0
102
RTVSPropertyOp16
 70
     0
102
RTVSPropertyOp17
 70
     0
102
RTVSPropertyOp18
 70
     0
102
RTVSPropertyOp19
 70
     0
102
RTVSPropertyOp20
 70
     0
102
RTVSPropertyOp21
 70
     0
102
RTVSPropertyOp22
 70
     0
102
RTVSPropertyOp23
 70
     0
102
RTVSPropertyOp24
 70
     0
102
RTVSPropertyOp25
 70
     0
102
RTVSPropertyOp26
 70
     0
102
RTVSPropertyOp27
 70
     0
102
RTVSPropertyOp28
 70
     0
102
RTVSPropertyOp29
 70
     0
102
RTVSPropertyOp30
 70
     0
102
RTVSPropertyOp31
 70
     0
102
RTVSPropertyOp32
 70
     0
102
RTVSPropertyOp33
 70
     0
102
RTVSPropertyOp34
 70
     0
102
RTVSPropertyOp35
 70
     0
102
RTVSPropertyOp36
 70
     0
102
RTVSPropertyOp37
 70
     0
102
RTVSPropertyOp38
 70
     0
102
RTVSPropertyOp39
 70
     0
102
RTVSPropertyOp40
 70
     0
102
RTVSPropertyOp41
 70
     0
102
RTVSPropertyOp42
 70
     0
102
RTVSPropertyOp43
 70
     0
102
RTVSPropertyOp44
 70
     0
102
RTVSPropertyOp45
 70
     0
102
RTVSPropertyOp46
 70
     0
102
RTVSPropertyOp47
 70
     0
102
RTVSPropertyOp48
 70
     0
102
RTVSPropertyOp49
 70
     0
102
RTVSPropertyOp50
 70
     0
102
RTVSPropertyOp51
 70
     0
102
RTVSPropertyOp52
 70
     0
102
RTVSPropertyOp53
 70
     0
102
RTVSPropertyOp54
 70
     0
102
RTVSPropertyOp55
 70
     0
102
RTVSPropertyOp56
 70
     0
102
RTVSPropertyOp57
 70
     0
102
RTVSPost2010Prop28
280
     0
102
RTVSPost2010PropOp28
 70
     0
102
RTVSPost2010Prop29
280
     1
102
RTVSPost2010PropOp29
 70
     0
102
RTVSPost2010Prop30
280
     1
102
RTVSPost2010PropOp30
 70
     0
102
RTVSPost2010Prop31
280
     0
102
RTVSPost2010PropOp31
 70
     0
102
RTVSPost2010Prop32
280
     0
102
RTVSPost2010PropOp32
 70
     0
102
RTVSPost2010Prop33
280
     0
102
RTVSPost2010PropOp33
 70
     0
102
RTVSPost2010Prop34
280
     0
102
RTVSPost2010PropOp34
 70
     0
102
RTVSPost2010Prop35
280
     0
102
RTVSPost2010PropOp35
 70
     0
102
RTVSPost2010Prop36
280
     0
102
RTVSPost2010PropOp36
 70
     0
102
RTVSPost2010Prop37
 90
       50
102
RTVSPost2010PropOp37
 70
     0
102
RTVSPost2010Prop38
140
0.0
102
RTVSPost2010PropOp38
 70
     0
102
RTVSPost2010Prop39
140
1.0
102
RTVSPost2010PropOp39
 70
     0
102
RTVSPost2010Prop40
 90
        0
102
RTVSPost2010PropOp40
 70
     0
102
RTVSPost2010Prop41ColorIndex
 90
       18
102
RTVSPost2010Prop41ColorRGB
 90
        0
102
RTVSPost2010PropOp41
 70
     0
102
RTVSPost2010Prop42
 90
       50
102
RTVSPost2010PropOp42
 70
     0
102
RTVSPost2010Prop43
 90
        3
102
RTVSPost2010PropOp43
 70
     0
102
RTVSPost2010Prop44ColorIndex
 90
        5
102
RTVSPost2010Prop44ColorRGB
 90
      255
102
RTVSPost2010PropOp44
 70
     0
102
RTVSPost2010Prop45
280
     0
102
RTVSPost2010PropOp45
 70
     0
102
RTVSPost2010Prop46
 90
       50
102
RTVSPost2010PropOp46
 70
     0
102
RTVSPost2010Prop47
 90
       50
102
RTVSPost2010PropOp47
 70
     0
102
RTVSPost2010Prop48
 90
       50
102
RTVSPost2010PropOp48
 70
     0
102
RTVSPost2010Prop49
280
     0
102
RTVSPost2010PropOp49
 70
     0
102
RTVSPost2010Prop50
 90
       50
102
RTVSPost2010PropOp50
 70
     0
102
RTVSPost2010Prop51ColorIndex
 90
      256
102
RTVSPost2010Prop51ColorRGB
 90
-16777216
102
RTVSPost2010PropOp51
 70
     0
102
RTVSPost2010Prop52
140
1.0
102
RTVSPost2010PropOp52
 70
     0
102
RTVSPost2010Prop53
 90
        2
102
RTVSPost2010PropOp53
 70
     0
102
RTVSPost2010Prop54
  1
strokes_ogs.tif
102
RTVSPost2010PropOp54
 70
     0
102
RTVSPost2010Prop55
280
     0
102
RTVSPost2010PropOp55
 70
     0
102
RTVSPost2010Prop56
140
1.0
102
RTVSPost2010PropOp56
 70
     0
102
RTVSPost2010Prop57
140
1.0
102
RTVSPost2010PropOp57
 70
     0
  0
XRECORD
  5
374
102
{ACAD_REACTORS
330
373
102
}
330
373
100
AcDbXrecord
280
     1
102
RTVSPropertyOp0
 70
     1
102
RTVSPropertyOp1
 70
     1
102
RTVSPropertyOp2
 70
     1
102
RTVSPropertyOp3
 70
     1
102
RTVSPropertyOp4
 70
     1
102
RTVSPropertyOp5
 70
     1
102
RTVSPropertyOp6
 70
     1
102
RTVSPropertyOp7
 70
     1
102
RTVSPropertyOp8
 70
     1
102
RTVSPropertyOp9
 70
     1
102
RTVSPropertyOp10
 70
     1
102
RTVSPropertyOp11
 70
     1
102
RTVSPropertyOp12
 70
     1
102
RTVSPropertyOp13
 70
     1
102
RTVSPropertyOp14
 70
     1
102
RTVSPropertyOp15
 70
     1
102
RTVSPropertyOp16
 70
     1
102
RTVSPropertyOp17
 70
     1
102
RTVSPropertyOp18
 70
     1
102
RTVSPropertyOp19
 70
     1
102
RTVSPropertyOp20
 70
     1
102
RTVSPropertyOp21
 70
     1
102
RTVSPropertyOp22
 70
     1
102
RTVSPropertyOp23
 70
     1
102
RTVSPropertyOp24
 70
     1
102
RTVSPropertyOp25
 70
     1
102
RTVSPropertyOp26
 70
     1
102
RTVSPropertyOp27
 70
     1
102
RTVSPropertyOp28
 70
     1
102
RTVSPropertyOp29
 70
     1
102
RTVSPropertyOp30
 70
     1
102
RTVSPropertyOp31
 70
     1
102
RTVSPropertyOp32
 70
     1
102
RTVSPropertyOp33
 70
     1
102
RTVSPropertyOp34
 70
     1
102
RTVSPropertyOp35
 70
     1
102
RTVSPropertyOp36
 70
     1
102
RTVSPropertyOp37
 70
     1
102
RTVSPropertyOp38
 70
     1
102
RTVSPropertyOp39
 70
     1
102
RTVSPropertyOp40
 70
     1
102
RTVSPropertyOp41
 70
     1
102
RTVSPropertyOp42
 70
     1
102
RTVSPropertyOp43
 70
     1
102
RTVSPropertyOp44
 70
     1
102
RTVSPropertyOp45
 70
     1
102
RTVSPropertyOp46
 70
     1
102
RTVSPropertyOp47
 70
     1
102
RTVSPropertyOp48
 70
     1
102
RTVSPropertyOp49
 70
     1
102
RTVSPropertyOp50
 70
     1
102
RTVSPropertyOp51
 70
     0
102
RTVSPropertyOp52
 70
     0
102
RTVSPropertyOp53
 70
     1
102
RTVSPropertyOp54
 70
     1
102
RTVSPropertyOp55
 70
     1
102
RTVSPropertyOp56
 70
     1
102
RTVSPropertyOp57
 70
     1
102
RTVSPost2010Prop28
280
     0
102
RTVSPost2010PropOp28
 70
     1
102
RTVSPost2010Prop29
280
     1
102
RTVSPost2010PropOp29
 70
     1
102
RTVSPost2010Prop30
280
     1
102
RTVSPost2010PropOp30
 70
     1
102
RTVSPost2010Prop31
280
     0
102
RTVSPost2010PropOp31
 70
     1
102
RTVSPost2010Prop32
280
     0
102
RTVSPost2010PropOp32
 70
     1
102
RTVSPost2010Prop33
280
     0
102
RTVSPost2010PropOp33
 70
     1
102
RTVSPost2010Prop34
280
     0
102
RTVSPost2010PropOp34
 70
     1
102
RTVSPost2010Prop35
280
     0
102
RTVSPost2010PropOp35
 70
     1
102
RTVSPost2010Prop36
280
     0
102
RTVSPost2010PropOp36
 70
     1
102
RTVSPost2010Prop37
 90
       50
102
RTVSPost2010PropOp37
 70
     1
102
RTVSPost2010Prop38
140
0.0
102
RTVSPost2010PropOp38
 70
     1
102
RTVSPost2010Prop39
140
1.0
102
RTVSPost2010PropOp39
 70
     1
102
RTVSPost2010Prop40
 90
        0
102
RTVSPost2010PropOp40
 70
     1
102
RTVSPost2010Prop41ColorIndex
 90
       18
102
RTVSPost2010Prop41ColorRGB
 90
        0
102
RTVSPost2010PropOp41
 70
     1
102
RTVSPost2010Prop42
 90
       50
102
RTVSPost2010PropOp42
 70
     1
102
RTVSPost2010Prop43
 90
        3
102
RTVSPost2010PropOp43
 70
     1
102
RTVSPost2010Prop44ColorIndex
 90
        5
102
RTVSPost2010Prop44ColorRGB
 90
      255
102
RTVSPost2010PropOp44
 70
     1
102
RTVSPost2010Prop45
280
     0
102
RTVSPost2010PropOp45
 70
     1
102
RTVSPost2010Prop46
 90
       50
102
RTVSPost2010PropOp46
 70
     1
102
RTVSPost2010Prop47
 90
       50
102
RTVSPost2010PropOp47
 70
     1
102
RTVSPost2010Prop48
 90
       50
102
RTVSPost2010PropOp48
 70
     1
102
RTVSPost2010Prop49
280
     0
102
RTVSPost2010PropOp49
 70
     1
102
RTVSPost2010Prop50
 90
       50
102
RTVSPost2010PropOp50
 70
     1
102
RTVSPost2010Prop51ColorIndex
 90
      256
102
RTVSPost2010Prop51ColorRGB
 90
-16777216
102
RTVSPost2010PropOp51
 70
     0
102
RTVSPost2010Prop52
140
1.0
102
RTVSPost2010PropOp52
 70
     0
102
RTVSPost2010Prop53
 90
        2
102
RTVSPost2010PropOp53
 70
     1
102
RTVSPost2010Prop54
  1
strokes_ogs.tif
102
RTVSPost2010PropOp54
 70
     1
102
RTVSPost2010Prop55
280
     0
102
RTVSPost2010PropOp55
 70
     1
102
RTVSPost2010Prop56
140
1.0
102
RTVSPost2010PropOp56
 70
     1
102
RTVSPost2010Prop57
140
1.0
102
RTVSPost2010PropOp57
 70
     1
  0
XRECORD
  5
37C
102
{ACAD_REACTORS
330
37B
102
}
330
37B
100
AcDbXrecord
280
     1
102
RTVSPropertyOp0
 70
     0
102
RTVSPropertyOp1
 70
     0
102
RTVSPropertyOp2
 70
     0
102
RTVSPropertyOp3
 70
     0
102
RTVSPropertyOp4
 70
     0
102
RTVSPropertyOp5
 70
     0
102
RTVSPropertyOp6
 70
     0
102
RTVSPropertyOp7
 70
     0
102
RTVSPropertyOp8
 70
     0
102
RTVSPropertyOp9
 70
     0
102
RTVSPropertyOp10
 70
     0
102
RTVSPropertyOp11
 70
     0
102
RTVSPropertyOp12
 70
     0
102
RTVSPropertyOp13
 70
     0
102
RTVSPropertyOp14
 70
     2
102
RTVSPropertyOp15
 70
     0
102
RTVSPropertyOp16
 70
     0
102
RTVSPropertyOp17
 70
     0
102
RTVSPropertyOp18
 70
     0
102
RTVSPropertyOp19
 70
     0
102
RTVSPropertyOp20
 70
     0
102
RTVSPropertyOp21
 70
     0
102
RTVSPropertyOp22
 70
     0
102
RTVSPropertyOp23
 70
     0
102
RTVSPropertyOp24
 70
     0
102
RTVSPropertyOp25
 70
     0
102
RTVSPropertyOp26
 70
     0
102
RTVSPropertyOp27
 70
     0
102
RTVSPropertyOp28
 70
     0
102
RTVSPropertyOp29
 70
     0
102
RTVSPropertyOp30
 70
     0
102
RTVSPropertyOp31
 70
     0
102
RTVSPropertyOp32
 70
     0
102
RTVSPropertyOp33
 70
     0
102
RTVSPropertyOp34
 70
     0
102
RTVSPropertyOp35
 70
     0
102
RTVSPropertyOp36
 70
     0
102
RTVSPropertyOp37
 70
     0
102
RTVSPropertyOp38
 70
     0
102
RTVSPropertyOp39
 70
     0
102
RTVSPropertyOp40
 70
     0
102
RTVSPropertyOp41
 70
     0
102
RTVSPropertyOp42
 70
     0
102
RTVSPropertyOp43
 70
     0
102
RTVSPropertyOp44
 70
     0
102
RTVSPropertyOp45
 70
     0
102
RTVSPropertyOp46
 70
     0
102
RTVSPropertyOp47
 70
     0
102
RTVSPropertyOp48
 70
     0
102
RTVSPropertyOp49
 70
     0
102
RTVSPropertyOp50
 70
     0
102
RTVSPropertyOp51
 70
     0
102
RTVSPropertyOp52
 70
     0
102
RTVSPropertyOp53
 70
     0
102
RTVSPropertyOp54
 70
     0
102
RTVSPropertyOp55
 70
     0
102
RTVSPropertyOp56
 70
     0
102
RTVSPropertyOp57
 70
     0
102
RTVSPost2010Prop28
280
     0
102
RTVSPost2010PropOp28
 70
     0
102
RTVSPost2010Prop29
280
     1
102
RTVSPost2010PropOp29
 70
     0
102
RTVSPost2010Prop30
280
     1
102
RTVSPost2010PropOp30
 70
     0
102
RTVSPost2010Prop31
280
     0
102
RTVSPost2010PropOp31
 70
     0
102
RTVSPost2010Prop32
280
     0
102
RTVSPost2010PropOp32
 70
     0
102
RTVSPost2010Prop33
280
     0
102
RTVSPost2010PropOp33
 70
     0
102
RTVSPost2010Prop34
280
     0
102
RTVSPost2010PropOp34
 70
     0
102
RTVSPost2010Prop35
280
     0
102
RTVSPost2010PropOp35
 70
     0
102
RTVSPost2010Prop36
280
     0
102
RTVSPost2010PropOp36
 70
     0
102
RTVSPost2010Prop37
 90
       50
102
RTVSPost2010PropOp37
 70
     0
102
RTVSPost2010Prop38
140
0.0
102
RTVSPost2010PropOp38
 70
     0
102
RTVSPost2010Prop39
140
1.0
102
RTVSPost2010PropOp39
 70
     0
102
RTVSPost2010Prop40
 90
        0
102
RTVSPost2010PropOp40
 70
     0
102
RTVSPost2010Prop41ColorIndex
 90
       18
102
RTVSPost2010Prop41ColorRGB
 90
        0
102
RTVSPost2010PropOp41
 70
     0
102
RTVSPost2010Prop42
 90
       50
102
RTVSPost2010PropOp42
 70
     0
102
RTVSPost2010Prop43
 90
        3
102
RTVSPost2010PropOp43
 70
     0
102
RTVSPost2010Prop44ColorIndex
 90
        5
102
RTVSPost2010Prop44ColorRGB
 90
      255
102
RTVSPost2010PropOp44
 70
     0
102
RTVSPost2010Prop45
280
     0
102
RTVSPost2010PropOp45
 70
     0
102
RTVSPost2010Prop46
 90
       50
102
RTVSPost2010PropOp46
 70
     0
102
RTVSPost2010Prop47
 90
       50
102
RTVSPost2010PropOp47
 70
     0
102
RTVSPost2010Prop48
 90
       50
102
RTVSPost2010PropOp48
 70
     0
102
RTVSPost2010Prop49
280
     0
102
RTVSPost2010PropOp49
 70
     0
102
RTVSPost2010Prop50
 90
       50
102
RTVSPost2010PropOp50
 70
     0
102
RTVSPost2010Prop51ColorIndex
 90
      256
102
RTVSPost2010Prop51ColorRGB
 90
-16777216
102
RTVSPost2010PropOp51
 70
     0
102
RTVSPost2010Prop52
140
1.0
102
RTVSPost2010PropOp52
 70
     0
102
RTVSPost2010Prop53
 90
        2
102
RTVSPost2010PropOp53
 70
     0
102
RTVSPost2010Prop54
  1
strokes_ogs.tif
102
RTVSPost2010PropOp54
 70
     0
102
RTVSPost2010Prop55
280
     0
102
RTVSPost2010PropOp55
 70
     0
102
RTVSPost2010Prop56
140
1.0
102
RTVSPost2010PropOp56
 70
     0
102
RTVSPost2010Prop57
140
1.0
102
RTVSPost2010PropOp57
 70
     0
  0
XRECORD
  5
36A
102
{ACAD_REACTORS
330
369
102
}
330
369
100
AcDbXrecord
280
     1
102
RTVSPropertyOp0
 70
     1
102
RTVSPropertyOp1
 70
     1
102
RTVSPropertyOp2
 70
     1
102
RTVSPropertyOp3
 70
     1
102
RTVSPropertyOp4
 70
     1
102
RTVSPropertyOp5
 70
     1
102
RTVSPropertyOp6
 70
     1
102
RTVSPropertyOp7
 70
     1
102
RTVSPropertyOp8
 70
     1
102
RTVSPropertyOp9
 70
     1
102
RTVSPropertyOp10
 70
     1
102
RTVSPropertyOp11
 70
     1
102
RTVSPropertyOp12
 70
     1
102
RTVSPropertyOp13
 70
     1
102
RTVSPropertyOp14
 70
     1
102
RTVSPropertyOp15
 70
     1
102
RTVSPropertyOp16
 70
     1
102
RTVSPropertyOp17
 70
     1
102
RTVSPropertyOp18
 70
     1
102
RTVSPropertyOp19
 70
     1
102
RTVSPropertyOp20
 70
     1
102
RTVSPropertyOp21
 70
     1
102
RTVSPropertyOp22
 70
     1
102
RTVSPropertyOp23
 70
     1
102
RTVSPropertyOp24
 70
     1
102
RTVSPropertyOp25
 70
     1
102
RTVSPropertyOp26
 70
     1
102
RTVSPropertyOp27
 70
     1
102
RTVSPropertyOp28
 70
     1
102
RTVSPropertyOp29
 70
     1
102
RTVSPropertyOp30
 70
     1
102
RTVSPropertyOp31
 70
     1
102
RTVSPropertyOp32
 70
     1
102
RTVSPropertyOp33
 70
     1
102
RTVSPropertyOp34
 70
     1
102
RTVSPropertyOp35
 70
     1
102
RTVSPropertyOp36
 70
     1
102
RTVSPropertyOp37
 70
     1
102
RTVSPropertyOp38
 70
     1
102
RTVSPropertyOp39
 70
     1
102
RTVSPropertyOp40
 70
     1
102
RTVSPropertyOp41
 70
     1
102
RTVSPropertyOp42
 70
     1
102
RTVSPropertyOp43
 70
     1
102
RTVSPropertyOp44
 70
     1
102
RTVSPropertyOp45
 70
     1
102
RTVSPropertyOp46
 70
     1
102
RTVSPropertyOp47
 70
     1
102
RTVSPropertyOp48
 70
     1
102
RTVSPropertyOp49
 70
     1
102
RTVSPropertyOp50
 70
     1
102
RTVSPropertyOp51
 70
     0
102
RTVSPropertyOp52
 70
     0
102
RTVSPropertyOp53
 70
     1
102
RTVSPropertyOp54
 70
     1
102
RTVSPropertyOp55
 70
     1
102
RTVSPropertyOp56
 70
     1
102
RTVSPropertyOp57
 70
     1
102
RTVSPost2010Prop28
280
     0
102
RTVSPost2010PropOp28
 70
     1
102
RTVSPost2010Prop29
280
     1
102
RTVSPost2010PropOp29
 70
     1
102
RTVSPost2010Prop30
280
     1
102
RTVSPost2010PropOp30
 70
     1
102
RTVSPost2010Prop31
280
     0
102
RTVSPost2010PropOp31
 70
     1
102
RTVSPost2010Prop32
280
     0
102
RTVSPost2010PropOp32
 70
     1
102
RTVSPost2010Prop33
280
     0
102
RTVSPost2010PropOp33
 70
     1
102
RTVSPost2010Prop34
280
     0
102
RTVSPost2010PropOp34
 70
     1
102
RTVSPost2010Prop35
280
     0
102
RTVSPost2010PropOp35
 70
     1
102
RTVSPost2010Prop36
280
     0
102
RTVSPost2010PropOp36
 70
     1
102
RTVSPost2010Prop37
 90
       50
102
RTVSPost2010PropOp37
 70
     1
102
RTVSPost2010Prop38
140
0.0
102
RTVSPost2010PropOp38
 70
     1
102
RTVSPost2010Prop39
140
1.0
102
RTVSPost2010PropOp39
 70
     1
102
RTVSPost2010Prop40
 90
        0
102
RTVSPost2010PropOp40
 70
     1
102
RTVSPost2010Prop41ColorIndex
 90
       18
102
RTVSPost2010Prop41ColorRGB
 90
        0
102
RTVSPost2010PropOp41
 70
     1
102
RTVSPost2010Prop42
 90
       50
102
RTVSPost2010PropOp42
 70
     1
102
RTVSPost2010Prop43
 90
        3
102
RTVSPost2010PropOp43
 70
     1
102
RTVSPost2010Prop44ColorIndex
 90
        5
102
RTVSPost2010Prop44ColorRGB
 90
      255
102
RTVSPost2010PropOp44
 70
     1
102
RTVSPost2010Prop45
280
     0
102
RTVSPost2010PropOp45
 70
     1
102
RTVSPost2010Prop46
 90
       50
102
RTVSPost2010PropOp46
 70
     1
102
RTVSPost2010Prop47
 90
       50
102
RTVSPost2010PropOp47
 70
     1
102
RTVSPost2010Prop48
 90
       50
102
RTVSPost2010PropOp48
 70
     1
102
RTVSPost2010Prop49
280
     0
102
RTVSPost2010PropOp49
 70
     1
102
RTVSPost2010Prop50
 90
       50
102
RTVSPost2010PropOp50
 70
     1
102
RTVSPost2010Prop51ColorIndex
 90
      256
102
RTVSPost2010Prop51ColorRGB
 90
-16777216
102
RTVSPost2010PropOp51
 70
     0
102
RTVSPost2010Prop52
140
1.0
102
RTVSPost2010PropOp52
 70
     0
102
RTVSPost2010Prop53
 90
        2
102
RTVSPost2010PropOp53
 70
     1
102
RTVSPost2010Prop54
  1
strokes_ogs.tif
102
RTVSPost2010PropOp54
 70
     1
102
RTVSPost2010Prop55
280
     0
102
RTVSPost2010PropOp55
 70
     1
102
RTVSPost2010Prop56
140
1.0
102
RTVSPost2010PropOp56
 70
     1
102
RTVSPost2010Prop57
140
1.0
102
RTVSPost2010PropOp57
 70
     1
  0
XRECORD
  5
388
102
{ACAD_REACTORS
330
387
102
}
330
387
100
AcDbXrecord
280
     1
102
RTVSPropertyOp0
 70
     1
102
RTVSPropertyOp1
 70
     1
102
RTVSPropertyOp2
 70
     1
102
RTVSPropertyOp3
 70
     1
102
RTVSPropertyOp4
 70
     1
102
RTVSPropertyOp5
 70
     1
102
RTVSPropertyOp6
 70
     1
102
RTVSPropertyOp7
 70
     1
102
RTVSPropertyOp8
 70
     1
102
RTVSPropertyOp9
 70
     1
102
RTVSPropertyOp10
 70
     1
102
RTVSPropertyOp11
 70
     1
102
RTVSPropertyOp12
 70
     1
102
RTVSPropertyOp13
 70
     1
102
RTVSPropertyOp14
 70
     1
102
RTVSPropertyOp15
 70
     1
102
RTVSPropertyOp16
 70
     1
102
RTVSPropertyOp17
 70
     1
102
RTVSPropertyOp18
 70
     1
102
RTVSPropertyOp19
 70
     1
102
RTVSPropertyOp20
 70
     1
102
RTVSPropertyOp21
 70
     1
102
RTVSPropertyOp22
 70
     1
102
RTVSPropertyOp23
 70
     1
102
RTVSPropertyOp24
 70
     1
102
RTVSPropertyOp25
 70
     1
102
RTVSPropertyOp26
 70
     1
102
RTVSPropertyOp27
 70
     1
102
RTVSPropertyOp28
 70
     1
102
RTVSPropertyOp29
 70
     1
102
RTVSPropertyOp30
 70
     1
102
RTVSPropertyOp31
 70
     1
102
RTVSPropertyOp32
 70
     1
102
RTVSPropertyOp33
 70
     1
102
RTVSPropertyOp34
 70
     1
102
RTVSPropertyOp35
 70
     1
102
RTVSPropertyOp36
 70
     1
102
RTVSPropertyOp37
 70
     1
102
RTVSPropertyOp38
 70
     1
102
RTVSPropertyOp39
 70
     1
102
RTVSPropertyOp40
 70
     1
102
RTVSPropertyOp41
 70
     1
102
RTVSPropertyOp42
 70
     1
102
RTVSPropertyOp43
 70
     1
102
RTVSPropertyOp44
 70
     1
102
RTVSPropertyOp45
 70
     1
102
RTVSPropertyOp46
 70
     1
102
RTVSPropertyOp47
 70
     1
102
RTVSPropertyOp48
 70
     1
102
RTVSPropertyOp49
 70
     1
102
RTVSPropertyOp50
 70
     1
102
RTVSPropertyOp51
 70
     0
102
RTVSPropertyOp52
 70
     0
102
RTVSPropertyOp53
 70
     1
102
RTVSPropertyOp54
 70
     1
102
RTVSPropertyOp55
 70
     1
102
RTVSPropertyOp56
 70
     1
102
RTVSPropertyOp57
 70
     1
102
RTVSPost2010Prop28
280
     0
102
RTVSPost2010PropOp28
 70
     1
102
RTVSPost2010Prop29
280
     1
102
RTVSPost2010PropOp29
 70
     1
102
RTVSPost2010Prop30
280
     1
102
RTVSPost2010PropOp30
 70
     1
102
RTVSPost2010Prop31
280
     0
102
RTVSPost2010PropOp31
 70
     1
102
RTVSPost2010Prop32
280
     0
102
RTVSPost2010PropOp32
 70
     1
102
RTVSPost2010Prop33
280
     0
102
RTVSPost2010PropOp33
 70
     1
102
RTVSPost2010Prop34
280
     0
102
RTVSPost2010PropOp34
 70
     1
102
RTVSPost2010Prop35
280
     0
102
RTVSPost2010PropOp35
 70
     1
102
RTVSPost2010Prop36
280
     0
102
RTVSPost2010PropOp36
 70
     1
102
RTVSPost2010Prop37
 90
       50
102
RTVSPost2010PropOp37
 70
     1
102
RTVSPost2010Prop38
140
0.0
102
RTVSPost2010PropOp38
 70
     1
102
RTVSPost2010Prop39
140
1.0
102
RTVSPost2010PropOp39
 70
     1
102
RTVSPost2010Prop40
 90
        0
102
RTVSPost2010PropOp40
 70
     1
102
RTVSPost2010Prop41ColorIndex
 90
       18
102
RTVSPost2010Prop41ColorRGB
 90
        0
102
RTVSPost2010PropOp41
 70
     1
102
RTVSPost2010Prop42
 90
       50
102
RTVSPost2010PropOp42
 70
     1
102
RTVSPost2010Prop43
 90
        3
102
RTVSPost2010PropOp43
 70
     1
102
RTVSPost2010Prop44ColorIndex
 90
        5
102
RTVSPost2010Prop44ColorRGB
 90
      255
102
RTVSPost2010PropOp44
 70
     1
102
RTVSPost2010Prop45
280
     0
102
RTVSPost2010PropOp45
 70
     1
102
RTVSPost2010Prop46
 90
       50
102
RTVSPost2010PropOp46
 70
     1
102
RTVSPost2010Prop47
 90
       50
102
RTVSPost2010PropOp47
 70
     1
102
RTVSPost2010Prop48
 90
       50
102
RTVSPost2010PropOp48
 70
     1
102
RTVSPost2010Prop49
280
     0
102
RTVSPost2010PropOp49
 70
     1
102
RTVSPost2010Prop50
 90
       50
102
RTVSPost2010PropOp50
 70
     1
102
RTVSPost2010Prop51ColorIndex
 90
      256
102
RTVSPost2010Prop51ColorRGB
 90
-16777216
102
RTVSPost2010PropOp51
 70
     0
102
RTVSPost2010Prop52
140
1.0
102
RTVSPost2010PropOp52
 70
     0
102
RTVSPost2010Prop53
 90
        2
102
RTVSPost2010PropOp53
 70
     1
102
RTVSPost2010Prop54
  1
strokes_ogs.tif
102
RTVSPost2010PropOp54
 70
     1
102
RTVSPost2010Prop55
280
     0
102
RTVSPost2010PropOp55
 70
     1
102
RTVSPost2010Prop56
140
1.0
102
RTVSPost2010PropOp56
 70
     1
102
RTVSPost2010Prop57
140
1.0
102
RTVSPost2010PropOp57
 70
     1
  0
XRECORD
  5
386
102
{ACAD_REACTORS
330
385
102
}
330
385
100
AcDbXrecord
280
     1
102
RTVSPropertyOp0
 70
     1
102
RTVSPropertyOp1
 70
     1
102
RTVSPropertyOp2
 70
     1
102
RTVSPropertyOp3
 70
     1
102
RTVSPropertyOp4
 70
     1
102
RTVSPropertyOp5
 70
     1
102
RTVSPropertyOp6
 70
     1
102
RTVSPropertyOp7
 70
     1
102
RTVSPropertyOp8
 70
     1
102
RTVSPropertyOp9
 70
     1
102
RTVSPropertyOp10
 70
     1
102
RTVSPropertyOp11
 70
     1
102
RTVSPropertyOp12
 70
     1
102
RTVSPropertyOp13
 70
     1
102
RTVSPropertyOp14
 70
     1
102
RTVSPropertyOp15
 70
     1
102
RTVSPropertyOp16
 70
     1
102
RTVSPropertyOp17
 70
     1
102
RTVSPropertyOp18
 70
     1
102
RTVSPropertyOp19
 70
     1
102
RTVSPropertyOp20
 70
     1
102
RTVSPropertyOp21
 70
     1
102
RTVSPropertyOp22
 70
     1
102
RTVSPropertyOp23
 70
     1
102
RTVSPropertyOp24
 70
     1
102
RTVSPropertyOp25
 70
     1
102
RTVSPropertyOp26
 70
     1
102
RTVSPropertyOp27
 70
     1
102
RTVSPropertyOp28
 70
     1
102
RTVSPropertyOp29
 70
     1
102
RTVSPropertyOp30
 70
     1
102
RTVSPropertyOp31
 70
     1
102
RTVSPropertyOp32
 70
     1
102
RTVSPropertyOp33
 70
     1
102
RTVSPropertyOp34
 70
     1
102
RTVSPropertyOp35
 70
     1
102
RTVSPropertyOp36
 70
     1
102
RTVSPropertyOp37
 70
     1
102
RTVSPropertyOp38
 70
     1
102
RTVSPropertyOp39
 70
     1
102
RTVSPropertyOp40
 70
     1
102
RTVSPropertyOp41
 70
     1
102
RTVSPropertyOp42
 70
     1
102
RTVSPropertyOp43
 70
     1
102
RTVSPropertyOp44
 70
     1
102
RTVSPropertyOp45
 70
     1
102
RTVSPropertyOp46
 70
     1
102
RTVSPropertyOp47
 70
     1
102
RTVSPropertyOp48
 70
     1
102
RTVSPropertyOp49
 70
     1
102
RTVSPropertyOp50
 70
     1
102
RTVSPropertyOp51
 70
     0
102
RTVSPropertyOp52
 70
     0
102
RTVSPropertyOp53
 70
     1
102
RTVSPropertyOp54
 70
     1
102
RTVSPropertyOp55
 70
     1
102
RTVSPropertyOp56
 70
     1
102
RTVSPropertyOp57
 70
     1
102
RTVSPost2010Prop28
280
     0
102
RTVSPost2010PropOp28
 70
     1
102
RTVSPost2010Prop29
280
     1
102
RTVSPost2010PropOp29
 70
     1
102
RTVSPost2010Prop30
280
     1
102
RTVSPost2010PropOp30
 70
     1
102
RTVSPost2010Prop31
280
     0
102
RTVSPost2010PropOp31
 70
     1
102
RTVSPost2010Prop32
280
     0
102
RTVSPost2010PropOp32
 70
     1
102
RTVSPost2010Prop33
280
     0
102
RTVSPost2010PropOp33
 70
     1
102
RTVSPost2010Prop34
280
     0
102
RTVSPost2010PropOp34
 70
     1
102
RTVSPost2010Prop35
280
     0
102
RTVSPost2010PropOp35
 70
     1
102
RTVSPost2010Prop36
280
     0
102
RTVSPost2010PropOp36
 70
     1
102
RTVSPost2010Prop37
 90
       50
102
RTVSPost2010PropOp37
 70
     1
102
RTVSPost2010Prop38
140
0.0
102
RTVSPost2010PropOp38
 70
     1
102
RTVSPost2010Prop39
140
1.0
102
RTVSPost2010PropOp39
 70
     1
102
RTVSPost2010Prop40
 90
        0
102
RTVSPost2010PropOp40
 70
     1
102
RTVSPost2010Prop41ColorIndex
 90
       18
102
RTVSPost2010Prop41ColorRGB
 90
        0
102
RTVSPost2010PropOp41
 70
     1
102
RTVSPost2010Prop42
 90
       50
102
RTVSPost2010PropOp42
 70
     1
102
RTVSPost2010Prop43
 90
        3
102
RTVSPost2010PropOp43
 70
     1
102
RTVSPost2010Prop44ColorIndex
 90
        5
102
RTVSPost2010Prop44ColorRGB
 90
      255
102
RTVSPost2010PropOp44
 70
     1
102
RTVSPost2010Prop45
280
     0
102
RTVSPost2010PropOp45
 70
     1
102
RTVSPost2010Prop46
 90
       50
102
RTVSPost2010PropOp46
 70
     1
102
RTVSPost2010Prop47
 90
       50
102
RTVSPost2010PropOp47
 70
     1
102
RTVSPost2010Prop48
 90
       50
102
RTVSPost2010PropOp48
 70
     1
102
RTVSPost2010Prop49
280
     0
102
RTVSPost2010PropOp49
 70
     1
102
RTVSPost2010Prop50
 90
       50
102
RTVSPost2010PropOp50
 70
     1
102
RTVSPost2010Prop51ColorIndex
 90
      256
102
RTVSPost2010Prop51ColorRGB
 90
-16777216
102
RTVSPost2010PropOp51
 70
     0
102
RTVSPost2010Prop52
140
1.0
102
RTVSPost2010PropOp52
 70
     0
102
RTVSPost2010Prop53
 90
        2
102
RTVSPost2010PropOp53
 70
     1
102
RTVSPost2010Prop54
  1
strokes_ogs.tif
102
RTVSPost2010PropOp54
 70
     1
102
RTVSPost2010Prop55
280
     0
102
RTVSPost2010PropOp55
 70
     1
102
RTVSPost2010Prop56
140
1.0
102
RTVSPost2010PropOp56
 70
     1
102
RTVSPost2010Prop57
140
1.0
102
RTVSPost2010PropOp57
 70
     1
  0
XRECORD
  5
380
102
{ACAD_REACTORS
330
37F
102
}
330
37F
100
AcDbXrecord
280
     1
102
RTVSPropertyOp0
 70
     1
102
RTVSPropertyOp1
 70
     1
102
RTVSPropertyOp2
 70
     1
102
RTVSPropertyOp3
 70
     1
102
RTVSPropertyOp4
 70
     1
102
RTVSPropertyOp5
 70
     1
102
RTVSPropertyOp6
 70
     1
102
RTVSPropertyOp7
 70
     1
102
RTVSPropertyOp8
 70
     1
102
RTVSPropertyOp9
 70
     1
102
RTVSPropertyOp10
 70
     1
102
RTVSPropertyOp11
 70
     1
102
RTVSPropertyOp12
 70
     1
102
RTVSPropertyOp13
 70
     1
102
RTVSPropertyOp14
 70
     1
102
RTVSPropertyOp15
 70
     1
102
RTVSPropertyOp16
 70
     1
102
RTVSPropertyOp17
 70
     1
102
RTVSPropertyOp18
 70
     1
102
RTVSPropertyOp19
 70
     1
102
RTVSPropertyOp20
 70
     1
102
RTVSPropertyOp21
 70
     1
102
RTVSPropertyOp22
 70
     1
102
RTVSPropertyOp23
 70
     1
102
RTVSPropertyOp24
 70
     1
102
RTVSPropertyOp25
 70
     1
102
RTVSPropertyOp26
 70
     1
102
RTVSPropertyOp27
 70
     1
102
RTVSPropertyOp28
 70
     1
102
RTVSPropertyOp29
 70
     1
102
RTVSPropertyOp30
 70
     1
102
RTVSPropertyOp31
 70
     1
102
RTVSPropertyOp32
 70
     1
102
RTVSPropertyOp33
 70
     1
102
RTVSPropertyOp34
 70
     1
102
RTVSPropertyOp35
 70
     1
102
RTVSPropertyOp36
 70
     1
102
RTVSPropertyOp37
 70
     1
102
RTVSPropertyOp38
 70
     1
102
RTVSPropertyOp39
 70
     1
102
RTVSPropertyOp40
 70
     1
102
RTVSPropertyOp41
 70
     1
102
RTVSPropertyOp42
 70
     1
102
RTVSPropertyOp43
 70
     1
102
RTVSPropertyOp44
 70
     1
102
RTVSPropertyOp45
 70
     1
102
RTVSPropertyOp46
 70
     1
102
RTVSPropertyOp47
 70
     1
102
RTVSPropertyOp48
 70
     1
102
RTVSPropertyOp49
 70
     1
102
RTVSPropertyOp50
 70
     1
102
RTVSPropertyOp51
 70
     0
102
RTVSPropertyOp52
 70
     0
102
RTVSPropertyOp53
 70
     1
102
RTVSPropertyOp54
 70
     1
102
RTVSPropertyOp55
 70
     1
102
RTVSPropertyOp56
 70
     1
102
RTVSPropertyOp57
 70
     1
102
RTVSPost2010Prop28
280
     0
102
RTVSPost2010PropOp28
 70
     1
102
RTVSPost2010Prop29
280
     1
102
RTVSPost2010PropOp29
 70
     1
102
RTVSPost2010Prop30
280
     1
102
RTVSPost2010PropOp30
 70
     1
102
RTVSPost2010Prop31
280
     0
102
RTVSPost2010PropOp31
 70
     1
102
RTVSPost2010Prop32
280
     0
102
RTVSPost2010PropOp32
 70
     1
102
RTVSPost2010Prop33
280
     0
102
RTVSPost2010PropOp33
 70
     1
102
RTVSPost2010Prop34
280
     0
102
RTVSPost2010PropOp34
 70
     1
102
RTVSPost2010Prop35
280
     0
102
RTVSPost2010PropOp35
 70
     1
102
RTVSPost2010Prop36
280
     0
102
RTVSPost2010PropOp36
 70
     1
102
RTVSPost2010Prop37
 90
       50
102
RTVSPost2010PropOp37
 70
     1
102
RTVSPost2010Prop38
140
0.0
102
RTVSPost2010PropOp38
 70
     1
102
RTVSPost2010Prop39
140
1.0
102
RTVSPost2010PropOp39
 70
     1
102
RTVSPost2010Prop40
 90
        0
102
RTVSPost2010PropOp40
 70
     1
102
RTVSPost2010Prop41ColorIndex
 90
       18
102
RTVSPost2010Prop41ColorRGB
 90
        0
102
RTVSPost2010PropOp41
 70
     1
102
RTVSPost2010Prop42
 90
       50
102
RTVSPost2010PropOp42
 70
     1
102
RTVSPost2010Prop43
 90
        3
102
RTVSPost2010PropOp43
 70
     1
102
RTVSPost2010Prop44ColorIndex
 90
        5
102
RTVSPost2010Prop44ColorRGB
 90
      255
102
RTVSPost2010PropOp44
 70
     1
102
RTVSPost2010Prop45
280
     0
102
RTVSPost2010PropOp45
 70
     1
102
RTVSPost2010Prop46
 90
       50
102
RTVSPost2010PropOp46
 70
     1
102
RTVSPost2010Prop47
 90
       50
102
RTVSPost2010PropOp47
 70
     1
102
RTVSPost2010Prop48
 90
       50
102
RTVSPost2010PropOp48
 70
     1
102
RTVSPost2010Prop49
280
     0
102
RTVSPost2010PropOp49
 70
     1
102
RTVSPost2010Prop50
 90
       50
102
RTVSPost2010PropOp50
 70
     1
102
RTVSPost2010Prop51ColorIndex
 90
      256
102
RTVSPost2010Prop51ColorRGB
 90
-16777216
102
RTVSPost2010PropOp51
 70
     0
102
RTVSPost2010Prop52
140
1.0
102
RTVSPost2010PropOp52
 70
     0
102
RTVSPost2010Prop53
 90
        2
102
RTVSPost2010PropOp53
 70
     1
102
RTVSPost2010Prop54
  1
strokes_ogs.tif
102
RTVSPost2010PropOp54
 70
     1
102
RTVSPost2010Prop55
280
     0
102
RTVSPost2010PropOp55
 70
     1
102
RTVSPost2010Prop56
140
1.0
102
RTVSPost2010PropOp56
 70
     1
102
RTVSPost2010Prop57
140
1.0
102
RTVSPost2010PropOp57
 70
     1
  0
XRECORD
  5
382
102
{ACAD_REACTORS
330
381
102
}
330
381
100
AcDbXrecord
280
     1
102
RTVSPropertyOp0
 70
     1
102
RTVSPropertyOp1
 70
     1
102
RTVSPropertyOp2
 70
     1
102
RTVSPropertyOp3
 70
     1
102
RTVSPropertyOp4
 70
     1
102
RTVSPropertyOp5
 70
     1
102
RTVSPropertyOp6
 70
     1
102
RTVSPropertyOp7
 70
     1
102
RTVSPropertyOp8
 70
     1
102
RTVSPropertyOp9
 70
     1
102
RTVSPropertyOp10
 70
     1
102
RTVSPropertyOp11
 70
     1
102
RTVSPropertyOp12
 70
     1
102
RTVSPropertyOp13
 70
     1
102
RTVSPropertyOp14
 70
     1
102
RTVSPropertyOp15
 70
     1
102
RTVSPropertyOp16
 70
     1
102
RTVSPropertyOp17
 70
     1
102
RTVSPropertyOp18
 70
     1
102
RTVSPropertyOp19
 70
     1
102
RTVSPropertyOp20
 70
     1
102
RTVSPropertyOp21
 70
     1
102
RTVSPropertyOp22
 70
     1
102
RTVSPropertyOp23
 70
     1
102
RTVSPropertyOp24
 70
     1
102
RTVSPropertyOp25
 70
     1
102
RTVSPropertyOp26
 70
     1
102
RTVSPropertyOp27
 70
     1
102
RTVSPropertyOp28
 70
     1
102
RTVSPropertyOp29
 70
     1
102
RTVSPropertyOp30
 70
     1
102
RTVSPropertyOp31
 70
     1
102
RTVSPropertyOp32
 70
     1
102
RTVSPropertyOp33
 70
     1
102
RTVSPropertyOp34
 70
     1
102
RTVSPropertyOp35
 70
     1
102
RTVSPropertyOp36
 70
     1
102
RTVSPropertyOp37
 70
     1
102
RTVSPropertyOp38
 70
     1
102
RTVSPropertyOp39
 70
     1
102
RTVSPropertyOp40
 70
     1
102
RTVSPropertyOp41
 70
     1
102
RTVSPropertyOp42
 70
     1
102
RTVSPropertyOp43
 70
     1
102
RTVSPropertyOp44
 70
     1
102
RTVSPropertyOp45
 70
     1
102
RTVSPropertyOp46
 70
     1
102
RTVSPropertyOp47
 70
     1
102
RTVSPropertyOp48
 70
     1
102
RTVSPropertyOp49
 70
     1
102
RTVSPropertyOp50
 70
     1
102
RTVSPropertyOp51
 70
     0
102
RTVSPropertyOp52
 70
     0
102
RTVSPropertyOp53
 70
     1
102
RTVSPropertyOp54
 70
     1
102
RTVSPropertyOp55
 70
     1
102
RTVSPropertyOp56
 70
     1
102
RTVSPropertyOp57
 70
     1
102
RTVSPost2010Prop28
280
     0
102
RTVSPost2010PropOp28
 70
     1
102
RTVSPost2010Prop29
280
     1
102
RTVSPost2010PropOp29
 70
     1
102
RTVSPost2010Prop30
280
     1
102
RTVSPost2010PropOp30
 70
     1
102
RTVSPost2010Prop31
280
     0
102
RTVSPost2010PropOp31
 70
     1
102
RTVSPost2010Prop32
280
     0
102
RTVSPost2010PropOp32
 70
     1
102
RTVSPost2010Prop33
280
     0
102
RTVSPost2010PropOp33
 70
     1
102
RTVSPost2010Prop34
280
     0
102
RTVSPost2010PropOp34
 70
     1
102
RTVSPost2010Prop35
280
     0
102
RTVSPost2010PropOp35
 70
     1
102
RTVSPost2010Prop36
280
     0
102
RTVSPost2010PropOp36
 70
     1
102
RTVSPost2010Prop37
 90
       50
102
RTVSPost2010PropOp37
 70
     1
102
RTVSPost2010Prop38
140
0.0
102
RTVSPost2010PropOp38
 70
     1
102
RTVSPost2010Prop39
140
1.0
102
RTVSPost2010PropOp39
 70
     1
102
RTVSPost2010Prop40
 90
        0
102
RTVSPost2010PropOp40
 70
     1
102
RTVSPost2010Prop41ColorIndex
 90
       18
102
RTVSPost2010Prop41ColorRGB
 90
        0
102
RTVSPost2010PropOp41
 70
     1
102
RTVSPost2010Prop42
 90
       50
102
RTVSPost2010PropOp42
 70
     1
102
RTVSPost2010Prop43
 90
        3
102
RTVSPost2010PropOp43
 70
     1
102
RTVSPost2010Prop44ColorIndex
 90
        5
102
RTVSPost2010Prop44ColorRGB
 90
      255
102
RTVSPost2010PropOp44
 70
     1
102
RTVSPost2010Prop45
280
     0
102
RTVSPost2010PropOp45
 70
     1
102
RTVSPost2010Prop46
 90
       50
102
RTVSPost2010PropOp46
 70
     1
102
RTVSPost2010Prop47
 90
       50
102
RTVSPost2010PropOp47
 70
     1
102
RTVSPost2010Prop48
 90
       50
102
RTVSPost2010PropOp48
 70
     1
102
RTVSPost2010Prop49
280
     0
102
RTVSPost2010PropOp49
 70
     1
102
RTVSPost2010Prop50
 90
       50
102
RTVSPost2010PropOp50
 70
     1
102
RTVSPost2010Prop51ColorIndex
 90
      256
102
RTVSPost2010Prop51ColorRGB
 90
-16777216
102
RTVSPost2010PropOp51
 70
     0
102
RTVSPost2010Prop52
140
1.0
102
RTVSPost2010PropOp52
 70
     0
102
RTVSPost2010Prop53
 90
        2
102
RTVSPost2010PropOp53
 70
     1
102
RTVSPost2010Prop54
  1
strokes_ogs.tif
102
RTVSPost2010PropOp54
 70
     1
102
RTVSPost2010Prop55
280
     0
102
RTVSPost2010PropOp55
 70
     1
102
RTVSPost2010Prop56
140
1.0
102
RTVSPost2010PropOp56
 70
     1
102
RTVSPost2010Prop57
140
1.0
102
RTVSPost2010PropOp57
 70
     1
  0
XRECORD
  5
372
102
{ACAD_REACTORS
330
371
102
}
330
371
100
AcDbXrecord
280
     1
102
RTVSPropertyOp0
 70
     1
102
RTVSPropertyOp1
 70
     1
102
RTVSPropertyOp2
 70
     1
102
RTVSPropertyOp3
 70
     1
102
RTVSPropertyOp4
 70
     1
102
RTVSPropertyOp5
 70
     1
102
RTVSPropertyOp6
 70
     1
102
RTVSPropertyOp7
 70
     1
102
RTVSPropertyOp8
 70
     1
102
RTVSPropertyOp9
 70
     1
102
RTVSPropertyOp10
 70
     1
102
RTVSPropertyOp11
 70
     1
102
RTVSPropertyOp12
 70
     1
102
RTVSPropertyOp13
 70
     1
102
RTVSPropertyOp14
 70
     1
102
RTVSPropertyOp15
 70
     1
102
RTVSPropertyOp16
 70
     1
102
RTVSPropertyOp17
 70
     1
102
RTVSPropertyOp18
 70
     1
102
RTVSPropertyOp19
 70
     1
102
RTVSPropertyOp20
 70
     1
102
RTVSPropertyOp21
 70
     1
102
RTVSPropertyOp22
 70
     1
102
RTVSPropertyOp23
 70
     1
102
RTVSPropertyOp24
 70
     1
102
RTVSPropertyOp25
 70
     1
102
RTVSPropertyOp26
 70
     1
102
RTVSPropertyOp27
 70
     1
102
RTVSPropertyOp28
 70
     1
102
RTVSPropertyOp29
 70
     1
102
RTVSPropertyOp30
 70
     1
102
RTVSPropertyOp31
 70
     1
102
RTVSPropertyOp32
 70
     1
102
RTVSPropertyOp33
 70
     1
102
RTVSPropertyOp34
 70
     1
102
RTVSPropertyOp35
 70
     1
102
RTVSPropertyOp36
 70
     1
102
RTVSPropertyOp37
 70
     1
102
RTVSPropertyOp38
 70
     1
102
RTVSPropertyOp39
 70
     1
102
RTVSPropertyOp40
 70
     1
102
RTVSPropertyOp41
 70
     1
102
RTVSPropertyOp42
 70
     1
102
RTVSPropertyOp43
 70
     1
102
RTVSPropertyOp44
 70
     1
102
RTVSPropertyOp45
 70
     1
102
RTVSPropertyOp46
 70
     1
102
RTVSPropertyOp47
 70
     1
102
RTVSPropertyOp48
 70
     1
102
RTVSPropertyOp49
 70
     1
102
RTVSPropertyOp50
 70
     1
102
RTVSPropertyOp51
 70
     0
102
RTVSPropertyOp52
 70
     0
102
RTVSPropertyOp53
 70
     1
102
RTVSPropertyOp54
 70
     1
102
RTVSPropertyOp55
 70
     1
102
RTVSPropertyOp56
 70
     1
102
RTVSPropertyOp57
 70
     1
102
RTVSPost2010Prop28
280
     0
102
RTVSPost2010PropOp28
 70
     1
102
RTVSPost2010Prop29
280
     1
102
RTVSPost2010PropOp29
 70
     1
102
RTVSPost2010Prop30
280
     1
102
RTVSPost2010PropOp30
 70
     1
102
RTVSPost2010Prop31
280
     0
102
RTVSPost2010PropOp31
 70
     1
102
RTVSPost2010Prop32
280
     0
102
RTVSPost2010PropOp32
 70
     1
102
RTVSPost2010Prop33
280
     0
102
RTVSPost2010PropOp33
 70
     1
102
RTVSPost2010Prop34
280
     0
102
RTVSPost2010PropOp34
 70
     1
102
RTVSPost2010Prop35
280
     0
102
RTVSPost2010PropOp35
 70
     1
102
RTVSPost2010Prop36
280
     0
102
RTVSPost2010PropOp36
 70
     1
102
RTVSPost2010Prop37
 90
       50
102
RTVSPost2010PropOp37
 70
     1
102
RTVSPost2010Prop38
140
0.0
102
RTVSPost2010PropOp38
 70
     1
102
RTVSPost2010Prop39
140
1.0
102
RTVSPost2010PropOp39
 70
     1
102
RTVSPost2010Prop40
 90
        0
102
RTVSPost2010PropOp40
 70
     1
102
RTVSPost2010Prop41ColorIndex
 90
       18
102
RTVSPost2010Prop41ColorRGB
 90
        0
102
RTVSPost2010PropOp41
 70
     1
102
RTVSPost2010Prop42
 90
       50
102
RTVSPost2010PropOp42
 70
     1
102
RTVSPost2010Prop43
 90
        3
102
RTVSPost2010PropOp43
 70
     1
102
RTVSPost2010Prop44ColorIndex
 90
        5
102
RTVSPost2010Prop44ColorRGB
 90
      255
102
RTVSPost2010PropOp44
 70
     1
102
RTVSPost2010Prop45
280
     0
102
RTVSPost2010PropOp45
 70
     1
102
RTVSPost2010Prop46
 90
       50
102
RTVSPost2010PropOp46
 70
     1
102
RTVSPost2010Prop47
 90
       50
102
RTVSPost2010PropOp47
 70
     1
102
RTVSPost2010Prop48
 90
       50
102
RTVSPost2010PropOp48
 70
     1
102
RTVSPost2010Prop49
280
     0
102
RTVSPost2010PropOp49
 70
     1
102
RTVSPost2010Prop50
 90
       50
102
RTVSPost2010PropOp50
 70
     1
102
RTVSPost2010Prop51ColorIndex
 90
      256
102
RTVSPost2010Prop51ColorRGB
 90
-16777216
102
RTVSPost2010PropOp51
 70
     0
102
RTVSPost2010Prop52
140
1.0
102
RTVSPost2010PropOp52
 70
     0
102
RTVSPost2010Prop53
 90
        2
102
RTVSPost2010PropOp53
 70
     1
102
RTVSPost2010Prop54
  1
strokes_ogs.tif
102
RTVSPost2010PropOp54
 70
     1
102
RTVSPost2010Prop55
280
     0
102
RTVSPost2010PropOp55
 70
     1
102
RTVSPost2010Prop56
140
1.0
102
RTVSPost2010PropOp56
 70
     1
102
RTVSPost2010Prop57
140
1.0
102
RTVSPost2010PropOp57
 70
     1
  0
XRECORD
  5
364
102
{ACAD_REACTORS
330
363
102
}
330
363
100
AcDbXrecord
280
     1
102
RTVSPropertyOp0
 70
     1
102
RTVSPropertyOp1
 70
     1
102
RTVSPropertyOp2
 70
     1
102
RTVSPropertyOp3
 70
     1
102
RTVSPropertyOp4
 70
     1
102
RTVSPropertyOp5
 70
     1
102
RTVSPropertyOp6
 70
     1
102
RTVSPropertyOp7
 70
     1
102
RTVSPropertyOp8
 70
     1
102
RTVSPropertyOp9
 70
     1
102
RTVSPropertyOp10
 70
     1
102
RTVSPropertyOp11
 70
     1
102
RTVSPropertyOp12
 70
     1
102
RTVSPropertyOp13
 70
     1
102
RTVSPropertyOp14
 70
     1
102
RTVSPropertyOp15
 70
     1
102
RTVSPropertyOp16
 70
     1
102
RTVSPropertyOp17
 70
     1
102
RTVSPropertyOp18
 70
     1
102
RTVSPropertyOp19
 70
     1
102
RTVSPropertyOp20
 70
     1
102
RTVSPropertyOp21
 70
     1
102
RTVSPropertyOp22
 70
     1
102
RTVSPropertyOp23
 70
     1
102
RTVSPropertyOp24
 70
     1
102
RTVSPropertyOp25
 70
     1
102
RTVSPropertyOp26
 70
     1
102
RTVSPropertyOp27
 70
     1
102
RTVSPropertyOp28
 70
     1
102
RTVSPropertyOp29
 70
     1
102
RTVSPropertyOp30
 70
     1
102
RTVSPropertyOp31
 70
     1
102
RTVSPropertyOp32
 70
     1
102
RTVSPropertyOp33
 70
     1
102
RTVSPropertyOp34
 70
     1
102
RTVSPropertyOp35
 70
     1
102
RTVSPropertyOp36
 70
     1
102
RTVSPropertyOp37
 70
     1
102
RTVSPropertyOp38
 70
     1
102
RTVSPropertyOp39
 70
     1
102
RTVSPropertyOp40
 70
     1
102
RTVSPropertyOp41
 70
     1
102
RTVSPropertyOp42
 70
     1
102
RTVSPropertyOp43
 70
     1
102
RTVSPropertyOp44
 70
     1
102
RTVSPropertyOp45
 70
     1
102
RTVSPropertyOp46
 70
     1
102
RTVSPropertyOp47
 70
     1
102
RTVSPropertyOp48
 70
     1
102
RTVSPropertyOp49
 70
     1
102
RTVSPropertyOp50
 70
     1
102
RTVSPropertyOp51
 70
     0
102
RTVSPropertyOp52
 70
     0
102
RTVSPropertyOp53
 70
     1
102
RTVSPropertyOp54
 70
     1
102
RTVSPropertyOp55
 70
     1
102
RTVSPropertyOp56
 70
     1
102
RTVSPropertyOp57
 70
     1
102
RTVSPost2010Prop28
280
     0
102
RTVSPost2010PropOp28
 70
     1
102
RTVSPost2010Prop29
280
     1
102
RTVSPost2010PropOp29
 70
     1
102
RTVSPost2010Prop30
280
     1
102
RTVSPost2010PropOp30
 70
     1
102
RTVSPost2010Prop31
280
     0
102
RTVSPost2010PropOp31
 70
     1
102
RTVSPost2010Prop32
280
     0
102
RTVSPost2010PropOp32
 70
     1
102
RTVSPost2010Prop33
280
     0
102
RTVSPost2010PropOp33
 70
     1
102
RTVSPost2010Prop34
280
     0
102
RTVSPost2010PropOp34
 70
     1
102
RTVSPost2010Prop35
280
     0
102
RTVSPost2010PropOp35
 70
     1
102
RTVSPost2010Prop36
280
     0
102
RTVSPost2010PropOp36
 70
     1
102
RTVSPost2010Prop37
 90
       50
102
RTVSPost2010PropOp37
 70
     1
102
RTVSPost2010Prop38
140
0.0
102
RTVSPost2010PropOp38
 70
     1
102
RTVSPost2010Prop39
140
1.0
102
RTVSPost2010PropOp39
 70
     1
102
RTVSPost2010Prop40
 90
        0
102
RTVSPost2010PropOp40
 70
     1
102
RTVSPost2010Prop41ColorIndex
 90
       18
102
RTVSPost2010Prop41ColorRGB
 90
        0
102
RTVSPost2010PropOp41
 70
     1
102
RTVSPost2010Prop42
 90
       50
102
RTVSPost2010PropOp42
 70
     1
102
RTVSPost2010Prop43
 90
        3
102
RTVSPost2010PropOp43
 70
     1
102
RTVSPost2010Prop44ColorIndex
 90
        5
102
RTVSPost2010Prop44ColorRGB
 90
      255
102
RTVSPost2010PropOp44
 70
     1
102
RTVSPost2010Prop45
280
     0
102
RTVSPost2010PropOp45
 70
     1
102
RTVSPost2010Prop46
 90
       50
102
RTVSPost2010PropOp46
 70
     1
102
RTVSPost2010Prop47
 90
       50
102
RTVSPost2010PropOp47
 70
     1
102
RTVSPost2010Prop48
 90
       50
102
RTVSPost2010PropOp48
 70
     1
102
RTVSPost2010Prop49
280
     0
102
RTVSPost2010PropOp49
 70
     1
102
RTVSPost2010Prop50
 90
       50
102
RTVSPost2010PropOp50
 70
     1
102
RTVSPost2010Prop51ColorIndex
 90
      256
102
RTVSPost2010Prop51ColorRGB
 90
-16777216
102
RTVSPost2010PropOp51
 70
     0
102
RTVSPost2010Prop52
140
1.0
102
RTVSPost2010PropOp52
 70
     0
102
RTVSPost2010Prop53
 90
        2
102
RTVSPost2010PropOp53
 70
     1
102
RTVSPost2010Prop54
  1
strokes_ogs.tif
102
RTVSPost2010PropOp54
 70
     1
102
RTVSPost2010Prop55
280
     0
102
RTVSPost2010PropOp55
 70
     1
102
RTVSPost2010Prop56
140
1.0
102
RTVSPost2010PropOp56
 70
     1
102
RTVSPost2010Prop57
140
1.0
102
RTVSPost2010PropOp57
 70
     1
  0
XRECORD
  5
384
102
{ACAD_REACTORS
330
383
102
}
330
383
100
AcDbXrecord
280
     1
102
RTVSPropertyOp0
 70
     1
102
RTVSPropertyOp1
 70
     1
102
RTVSPropertyOp2
 70
     1
102
RTVSPropertyOp3
 70
     1
102
RTVSPropertyOp4
 70
     1
102
RTVSPropertyOp5
 70
     1
102
RTVSPropertyOp6
 70
     1
102
RTVSPropertyOp7
 70
     1
102
RTVSPropertyOp8
 70
     1
102
RTVSPropertyOp9
 70
     1
102
RTVSPropertyOp10
 70
     1
102
RTVSPropertyOp11
 70
     1
102
RTVSPropertyOp12
 70
     1
102
RTVSPropertyOp13
 70
     1
102
RTVSPropertyOp14
 70
     1
102
RTVSPropertyOp15
 70
     1
102
RTVSPropertyOp16
 70
     1
102
RTVSPropertyOp17
 70
     1
102
RTVSPropertyOp18
 70
     1
102
RTVSPropertyOp19
 70
     1
102
RTVSPropertyOp20
 70
     1
102
RTVSPropertyOp21
 70
     1
102
RTVSPropertyOp22
 70
     1
102
RTVSPropertyOp23
 70
     1
102
RTVSPropertyOp24
 70
     1
102
RTVSPropertyOp25
 70
     1
102
RTVSPropertyOp26
 70
     1
102
RTVSPropertyOp27
 70
     1
102
RTVSPropertyOp28
 70
     1
102
RTVSPropertyOp29
 70
     1
102
RTVSPropertyOp30
 70
     1
102
RTVSPropertyOp31
 70
     1
102
RTVSPropertyOp32
 70
     1
102
RTVSPropertyOp33
 70
     1
102
RTVSPropertyOp34
 70
     1
102
RTVSPropertyOp35
 70
     1
102
RTVSPropertyOp36
 70
     1
102
RTVSPropertyOp37
 70
     1
102
RTVSPropertyOp38
 70
     1
102
RTVSPropertyOp39
 70
     1
102
RTVSPropertyOp40
 70
     1
102
RTVSPropertyOp41
 70
     1
102
RTVSPropertyOp42
 70
     1
102
RTVSPropertyOp43
 70
     1
102
RTVSPropertyOp44
 70
     1
102
RTVSPropertyOp45
 70
     1
102
RTVSPropertyOp46
 70
     1
102
RTVSPropertyOp47
 70
     1
102
RTVSPropertyOp48
 70
     1
102
RTVSPropertyOp49
 70
     1
102
RTVSPropertyOp50
 70
     1
102
RTVSPropertyOp51
 70
     0
102
RTVSPropertyOp52
 70
     0
102
RTVSPropertyOp53
 70
     1
102
RTVSPropertyOp54
 70
     1
102
RTVSPropertyOp55
 70
     1
102
RTVSPropertyOp56
 70
     1
102
RTVSPropertyOp57
 70
     1
102
RTVSPost2010Prop28
280
     0
102
RTVSPost2010PropOp28
 70
     1
102
RTVSPost2010Prop29
280
     1
102
RTVSPost2010PropOp29
 70
     1
102
RTVSPost2010Prop30
280
     1
102
RTVSPost2010PropOp30
 70
     1
102
RTVSPost2010Prop31
280
     0
102
RTVSPost2010PropOp31
 70
     1
102
RTVSPost2010Prop32
280
     0
102
RTVSPost2010PropOp32
 70
     1
102
RTVSPost2010Prop33
280
     0
102
RTVSPost2010PropOp33
 70
     1
102
RTVSPost2010Prop34
280
     0
102
RTVSPost2010PropOp34
 70
     1
102
RTVSPost2010Prop35
280
     0
102
RTVSPost2010PropOp35
 70
     1
102
RTVSPost2010Prop36
280
     0
102
RTVSPost2010PropOp36
 70
     1
102
RTVSPost2010Prop37
 90
       50
102
RTVSPost2010PropOp37
 70
     1
102
RTVSPost2010Prop38
140
0.0
102
RTVSPost2010PropOp38
 70
     1
102
RTVSPost2010Prop39
140
1.0
102
RTVSPost2010PropOp39
 70
     1
102
RTVSPost2010Prop40
 90
        0
102
RTVSPost2010PropOp40
 70
     1
102
RTVSPost2010Prop41ColorIndex
 90
       18
102
RTVSPost2010Prop41ColorRGB
 90
        0
102
RTVSPost2010PropOp41
 70
     1
102
RTVSPost2010Prop42
 90
       50
102
RTVSPost2010PropOp42
 70
     1
102
RTVSPost2010Prop43
 90
        3
102
RTVSPost2010PropOp43
 70
     1
102
RTVSPost2010Prop44ColorIndex
 90
        5
102
RTVSPost2010Prop44ColorRGB
 90
      255
102
RTVSPost2010PropOp44
 70
     1
102
RTVSPost2010Prop45
280
     0
102
RTVSPost2010PropOp45
 70
     1
102
RTVSPost2010Prop46
 90
       50
102
RTVSPost2010PropOp46
 70
     1
102
RTVSPost2010Prop47
 90
       50
102
RTVSPost2010PropOp47
 70
     1
102
RTVSPost2010Prop48
 90
       50
102
RTVSPost2010PropOp48
 70
     1
102
RTVSPost2010Prop49
280
     0
102
RTVSPost2010PropOp49
 70
     1
102
RTVSPost2010Prop50
 90
       50
102
RTVSPost2010PropOp50
 70
     1
102
RTVSPost2010Prop51ColorIndex
 90
      256
102
RTVSPost2010Prop51ColorRGB
 90
-16777216
102
RTVSPost2010PropOp51
 70
     0
102
RTVSPost2010Prop52
140
1.0
102
RTVSPost2010PropOp52
 70
     0
102
RTVSPost2010Prop53
 90
        2
102
RTVSPost2010PropOp53
 70
     1
102
RTVSPost2010Prop54
  1
strokes_ogs.tif
102
RTVSPost2010PropOp54
 70
     1
102
RTVSPost2010Prop55
280
     0
102
RTVSPost2010PropOp55
 70
     1
102
RTVSPost2010Prop56
140
1.0
102
RTVSPost2010PropOp56
 70
     1
102
RTVSPost2010Prop57
140
1.0
102
RTVSPost2010PropOp57
 70
     1
  0
ENDSEC
  0
EOF
