  0
SECTION
  2
HEADER
  9
$ACADVER
  1
AC1018
  9
$ACADMAINTVER
 70
     0
  9
$DWGCODEPAGE
  3
ANSI_932
  9
$TITLE
  1
7FP-Uzx
  9
$SUBJECT
  1
旗ポール
  9
$AUTHOR
  1
修正tokoro
  9
$KEYWORDS
  1
FP070UZX
  9
$COMMENTS
  1
 
  9
$LASTSAVEDBY
  1
修正tokoro
  9
$CUSTOMPROPERTYTAG
  1
 
  9
$CUSTOMPROPERTY
  1
 
  9
$CUSTOMPROPERTYTAG
  1
 
  9
$CUSTOMPROPERTY
  1
 
  9
$CUSTOMPROPERTYTAG
  1
 
  9
$CUSTOMPROPERTY
  1
 
  9
$CUSTOMPROPERTYTAG
  1
 
  9
$CUSTOMPROPERTY
  1
 
  9
$CUSTOMPROPERTYTAG
  1
 
  9
$CUSTOMPROPERTY
  1
 
  9
$CUSTOMPROPERTYTAG
  1
 
  9
$CUSTOMPROPERTY
  1
 
  9
$CUSTOMPROPERTYTAG
  1
 
  9
$CUSTOMPROPERTY
  1
 
  9
$CUSTOMPROPERTYTAG
  1
 
  9
$CUSTOMPROPERTY
  1
 
  9
$CUSTOMPROPERTYTAG
  1
 
  9
$CUSTOMPROPERTY
  1
 
  9
$CUSTOMPROPERTYTAG
  1
 
  9
$CUSTOMPROPERTY
  1
 
  9
$INSBASE
 10
0.0
 20
0.0
 30
0.0
  9
$EXTMIN
 10
0.0
 20
0.0
 30
0.0
  9
$EXTMAX
 10
420.0
 20
297.0
 30
0.0
  9
$LIMMIN
 10
0.0
 20
0.0
  9
$LIMMAX
 10
420.0
 20
297.0
  9
$ORTHOMODE
 70
     0
  9
$REGENMODE
 70
     1
  9
$FILLMODE
 70
     1
  9
$QTEXTMODE
 70
     0
  9
$MIRRTEXT
 70
     1
  9
$LTSCALE
 40
8.4
  9
$ATTMODE
 70
     1
  9
$TEXTSIZE
 40
0.2
  9
$TRACEWID
 40
0.05
  9
$TEXTSTYLE
  7
STANDARD
  9
$CLAYER
  8
0
  9
$CELTYPE
  6
BYBLOCK
  9
$CECOLOR
 62
   256
  9
$CELTSCALE
 40
1.0
  9
$DISPSILH
 70
     0
  9
$DIMSCALE
 40
1.0
  9
$DIMASZ
 40
0.18
  9
$DIMEXO
 40
0.0625
  9
$DIMDLI
 40
0.38
  9
$DIMRND
 40
0.0
  9
$DIMDLE
 40
0.0
  9
$DIMEXE
 40
0.18
  9
$DIMTP
 40
0.0
  9
$DIMTM
 40
0.0
  9
$DIMTXT
 40
0.18
  9
$DIMCEN
 40
0.09
  9
$DIMTSZ
 40
0.0
  9
$DIMTOL
 70
     0
  9
$DIMLIM
 70
     0
  9
$DIMTIH
 70
     1
  9
$DIMTOH
 70
     1
  9
$DIMSE1
 70
     0
  9
$DIMSE2
 70
     0
  9
$DIMTAD
 70
     0
  9
$DIMZIN
 70
     0
  9
$DIMBLK
  1

  9
$DIMASO
 70
     1
  9
$DIMSHO
 70
     1
  9
$DIMPOST
  1

  9
$DIMAPOST
  1

  9
$DIMALT
 70
     0
  9
$DIMALTD
 70
     2
  9
$DIMALTF
 40
25.4
  9
$DIMLFAC
 40
1.0
  9
$DIMTOFL
 70
     0
  9
$DIMTVP
 40
0.0
  9
$DIMTIX
 70
     0
  9
$DIMSOXD
 70
     0
  9
$DIMSAH
 70
     0
  9
$DIMBLK1
  1

  9
$DIMBLK2
  1

  9
$DIMSTYLE
  2
STANDARD
  9
$DIMCLRD
 70
     0
  9
$DIMCLRE
 70
     0
  9
$DIMCLRT
 70
     0
  9
$DIMTFAC
 40
1.0
  9
$DIMGAP
 40
0.09
  9
$DIMJUST
 70
     0
  9
$DIMSD1
 70
     0
  9
$DIMSD2
 70
     0
  9
$DIMTOLJ
 70
     1
  9
$DIMTZIN
 70
     0
  9
$DIMALTZ
 70
     0
  9
$DIMALTTZ
 70
     0
  9
$DIMUPT
 70
     0
  9
$DIMDEC
 70
     4
  9
$DIMTDEC
 70
     4
  9
$DIMALTU
 70
     2
  9
$DIMALTTD
 70
     2
  9
$DIMTXSTY
  7
STANDARD
  9
$DIMAUNIT
 70
     0
  9
$DIMADEC
 70
     0
  9
$DIMALTRND
 40
0.0
  9
$DIMAZIN
 70
     0
  9
$DIMDSEP
 70
    46
  9
$DIMATFIT
 70
     3
  9
$DIMFRAC
 70
     0
  9
$DIMLDRBLK
  1

  9
$DIMLUNIT
 70
     2
  9
$DIMLWD
 70
    -2
  9
$DIMLWE
 70
    -2
  9
$DIMTMOVE
 70
     0
  9
$LUNITS
 70
     2
  9
$LUPREC
 70
     4
  9
$SKETCHINC
 40
0.1
  9
$FILLETRAD
 40
0.5
  9
$AUNITS
 70
     0
  9
$AUPREC
 70
     0
  9
$MENU
  1
.
  9
$ELEVATION
 40
0.0
  9
$PELEVATION
 40
0.0
  9
$THICKNESS
 40
0.0
  9
$LIMCHECK
 70
     0
  9
$CHAMFERA
 40
0.0
  9
$CHAMFERB
 40
0.0
  9
$CHAMFERC
 40
0.0
  9
$CHAMFERD
 40
0.0
  9
$SKPOLY
 70
     0
  9
$TDCREATE
 40
2447893.375
  9
$TDUCREATE
 40
0.0
  9
$TDUPDATE
 40
2460012.769787997
  9
$TDUUPDATE
 40
2460012.394787997
  9
$TDINDWG
 40
0.0
  9
$TDUSRTIMER
 40
0.0
  9
$USRTIMER
 70
     1
  9
$ANGBASE
 50
0.0
  9
$ANGDIR
 70
     0
  9
$PDMODE
 70
     0
  9
$PDSIZE
 40
0.0
  9
$PLINEWID
 40
0.0
  9
$SPLFRAME
 70
     0
  9
$SPLINETYPE
 70
     6
  9
$SPLINESEGS
 70
     8
  9
$HANDSEED
  5
3BF
  9
$SURFTAB1
 70
     6
  9
$SURFTAB2
 70
     6
  9
$SURFTYPE
 70
     6
  9
$SURFU
 70
     6
  9
$SURFV
 70
     6
  9
$UCSBASE
  2

  9
$UCSNAME
  2

  9
$UCSORG
 10
0.0
 20
0.0
 30
0.0
  9
$UCSXDIR
 10
1.0
 20
0.0
 30
0.0
  9
$UCSYDIR
 10
0.0
 20
1.0
 30
0.0
  9
$UCSORTHOREF
  2

  9
$UCSORTHOVIEW
 70
     0
  9
$UCSORGTOP
 10
0.0
 20
0.0
 30
0.0
  9
$UCSORGBOTTOM
 10
0.0
 20
0.0
 30
0.0
  9
$UCSORGLEFT
 10
0.0
 20
0.0
 30
0.0
  9
$UCSORGRIGHT
 10
0.0
 20
0.0
 30
0.0
  9
$UCSORGFRONT
 10
0.0
 20
0.0
 30
0.0
  9
$UCSORGBACK
 10
0.0
 20
0.0
 30
0.0
  9
$PUCSBASE
  2

  9
$PUCSNAME
  2

  9
$PUCSORG
 10
0.0
 20
0.0
 30
0.0
  9
$PUCSXDIR
 10
1.0
 20
0.0
 30
0.0
  9
$PUCSYDIR
 10
0.0
 20
1.0
 30
0.0
  9
$PUCSORTHOREF
  2

  9
$PUCSORTHOVIEW
 70
     0
  9
$PUCSORGTOP
 10
0.0
 20
0.0
 30
0.0
  9
$PUCSORGBOTTOM
 10
0.0
 20
0.0
 30
0.0
  9
$PUCSORGLEFT
 10
0.0
 20
0.0
 30
0.0
  9
$PUCSORGRIGHT
 10
0.0
 20
0.0
 30
0.0
  9
$PUCSORGFRONT
 10
0.0
 20
0.0
 30
0.0
  9
$PUCSORGBACK
 10
0.0
 20
0.0
 30
0.0
  9
$USERI1
 70
     0
  9
$USERI2
 70
     0
  9
$USERI3
 70
     0
  9
$USERI4
 70
     0
  9
$USERI5
 70
     0
  9
$USERR1
 40
0.0
  9
$USERR2
 40
0.0
  9
$USERR3
 40
0.0
  9
$USERR4
 40
0.0
  9
$USERR5
 40
0.0
  9
$WORLDVIEW
 70
     1
  9
$SHADEDGE
 70
     3
  9
$SHADEDIF
 70
    70
  9
$TILEMODE
 70
     1
  9
$MAXACTVP
 70
    64
  9
$PINSBASE
 10
0.0
 20
0.0
 30
0.0
  9
$PLIMCHECK
 70
     0
  9
$PEXTMIN
 10
1.000000000000000E+20
 20
1.000000000000000E+20
 30
1.000000000000000E+20
  9
$PEXTMAX
 10
-1.000000000000000E+20
 20
-1.000000000000000E+20
 30
-1.000000000000000E+20
  9
$PLIMMIN
 10
0.0
 20
0.0
  9
$PLIMMAX
 10
12.0
 20
9.0
  9
$UNITMODE
 70
     0
  9
$VISRETAIN
 70
     1
  9
$PLINEGEN
 70
     0
  9
$PSLTSCALE
 70
     1
  9
$TREEDEPTH
 70
  3020
  9
$CMLSTYLE
  2

  9
$CMLJUST
 70
     0
  9
$CMLSCALE
 40
1.0
  9
$PROXYGRAPHICS
 70
     1
  9
$MEASUREMENT
 70
     0
  9
$CELWEIGHT
370
    -1
  9
$ENDCAPS
280
     0
  9
$JOINSTYLE
280
     0
  9
$LWDISPLAY
290
     0
  9
$INSUNITS
 70
     0
  9
$HYPERLINKBASE
  1

  9
$STYLESHEET
  1

  9
$XEDIT
290
     1
  9
$CEPSNTYPE
380
     0
  9
$PSTYLEMODE
290
     1
  9
$FINGERPRINTGUID
  2
{6A17D206-4C26-4616-A3E2-9198757B09D9}
  9
$VERSIONGUID
  2
{FAEB1C32-E019-11D5-929B-00C0DF256EC4}
  9
$EXTNAMES
290
     1
  9
$PSVPSCALE
 40
0.0
  9
$OLESTARTUP
290
     0
  9
$SORTENTS
280
   127
  9
$INDEXCTL
280
     0
  9
$HIDETEXT
280
     1
  9
$XCLIPFRAME
290
     0
  9
$HALOGAP
280
     0
  9
$OBSCOLOR
 70
   257
  9
$OBSLTYPE
280
     0
  9
$INTERSECTIONDISPLAY
280
     0
  9
$INTERSECTIONCOLOR
 70
   257
  9
$DIMASSOC
280
     2
  9
$PROJECTNAME
  1

  0
ENDSEC
  0
SECTION
  2
CLASSES
  0
CLASS
  1
SCALE
  2
AcDbScale
  3
ObjectDBX Classes
 90
     1153
 91
        4
280
     0
281
     0
  0
CLASS
  1
VISUALSTYLE
  2
AcDbVisualStyle
  3
ObjectDBX Classes
 90
     4095
 91
        4
280
     0
281
     0
  0
CLASS
  1
MATERIAL
  2
AcDbMaterial
  3
ObjectDBX Classes
 90
     1153
 91
        4
280
     0
281
     0
  0
CLASS
  1
ACDBDICTIONARYWDFLT
  2
AcDbDictionaryWithDefault
  3
ObjectDBX Classes
 90
        0
 91
        4
280
     0
281
     0
  0
CLASS
  1
DICTIONARYVAR
  2
AcDbDictionaryVar
  3
ObjectDBX Classes
 90
        0
 91
        4
280
     0
281
     0
  0
ENDSEC
  0
SECTION
  2
TABLES
  0
TABLE
  2
VPORT
  5
8
102
{ACAD_XDICTIONARY
360
380
102
}
330
0
100
AcDbSymbolTable
 70
     1
  0
VPORT
  5
33B
330
8
100
AcDbSymbolTableRecord
100
AcDbViewportTableRecord
  2
*ACTIVE
 70
     0
 10
0.0
 20
0.0
 11
1.0
 21
1.0
 12
210.0
 22
148.5
 13
0.0
 23
0.0
 14
1.0
 24
1.0
 15
0.0
 25
0.0
 16
0.0
 26
0.0
 36
1.0
 17
0.0
 27
0.0
 37
0.0
 40
420.0
 41
1.4787878787879
 42
50.0
 43
0.0
 44
0.0
 50
0.0
 51
0.0
 71
     0
 72
   100
 73
     1
 74
     1
 75
     0
 76
     0
 77
     0
 78
     0
281
     0
 65
     1
110
0.0
120
0.0
130
0.0
111
1.0
121
0.0
131
0.0
112
0.0
122
1.0
132
0.0
 79
     0
146
0.0
  0
ENDTAB
  0
TABLE
  2
LTYPE
  5
5
330
0
100
AcDbSymbolTable
 70
    25
  0
LTYPE
  5
12
330
5
100
AcDbSymbolTableRecord
100
AcDbLinetypeTableRecord
  2
BYBLOCK
 70
     0
  3

 72
    65
 73
     0
 40
0.0
  0
LTYPE
  5
13
330
5
100
AcDbSymbolTableRecord
100
AcDbLinetypeTableRecord
  2
BYLAYER
 70
     0
  3

 72
    65
 73
     0
 40
0.0
  0
LTYPE
  5
14
330
5
100
AcDbSymbolTableRecord
100
AcDbLinetypeTableRecord
  2
CONTINUOUS
 70
     0
  3
Solid line
 72
    65
 73
     0
 40
0.0
  0
LTYPE
  5
20
330
5
100
AcDbSymbolTableRecord
100
AcDbLinetypeTableRecord
  2
BORDER
 70
     0
  3
__ __ . __ __ . __ __ . __ __ . __ __ . __ __ .
 72
    65
 73
     6
 40
1.75
 49
0.5
 74
     0
 49
-0.25
 74
     0
 49
0.5
 74
     0
 49
-0.25
 74
     0
 49
0.0
 74
     0
 49
-0.25
 74
     0
  0
LTYPE
  5
21
330
5
100
AcDbSymbolTableRecord
100
AcDbLinetypeTableRecord
  2
BORDER2
 70
     0
  3
__.__.__.__.__.__.__.__.__.__.__.__.__.__.__.__
 72
    65
 73
     6
 40
0.875
 49
0.25
 74
     0
 49
-0.125
 74
     0
 49
0.25
 74
     0
 49
-0.125
 74
     0
 49
0.0
 74
     0
 49
-0.125
 74
     0
  0
LTYPE
  5
22
330
5
100
AcDbSymbolTableRecord
100
AcDbLinetypeTableRecord
  2
BORDERX2
 70
     0
  3
____  ____  .  ____  ____  .  ____  ____  .  __
 72
    65
 73
     6
 40
3.5
 49
1.0
 74
     0
 49
-0.5
 74
     0
 49
1.0
 74
     0
 49
-0.5
 74
     0
 49
0.0
 74
     0
 49
-0.5
 74
     0
  0
LTYPE
  5
23
330
5
100
AcDbSymbolTableRecord
100
AcDbLinetypeTableRecord
  2
CENTER
 70
     0
  3
____ _ ____ _ ____ _ ____ _ ____ _ ____ _ ____ 
 72
    65
 73
     4
 40
2.0
 49
1.25
 74
     0
 49
-0.25
 74
     0
 49
0.25
 74
     0
 49
-0.25
 74
     0
  0
LTYPE
  5
24
330
5
100
AcDbSymbolTableRecord
100
AcDbLinetypeTableRecord
  2
CENTER2
 70
     0
  3
___ _ ___ _ ___ _ ___ _ ___ _ ___ _ ___ _ ___ _
 72
    65
 73
     4
 40
1.125
 49
0.75
 74
     0
 49
-0.125
 74
     0
 49
0.125
 74
     0
 49
-0.125
 74
     0
  0
LTYPE
  5
25
330
5
100
AcDbSymbolTableRecord
100
AcDbLinetypeTableRecord
  2
CENTERX2
 70
     0
  3
________  __  ________  __  ________  __  _____
 72
    65
 73
     4
 40
4.0
 49
2.5
 74
     0
 49
-0.5
 74
     0
 49
0.5
 74
     0
 49
-0.5
 74
     0
  0
LTYPE
  5
26
330
5
100
AcDbSymbolTableRecord
100
AcDbLinetypeTableRecord
  2
DASHDOT
 70
     0
  3
__ . __ . __ . __ . __ . __ . __ . __ . __ . __
 72
    65
 73
     4
 40
1.0
 49
0.5
 74
     0
 49
-0.25
 74
     0
 49
0.0
 74
     0
 49
-0.25
 74
     0
  0
LTYPE
  5
27
330
5
100
AcDbSymbolTableRecord
100
AcDbLinetypeTableRecord
  2
DASHDOT2
 70
     0
  3
_._._._._._._._._._._._._._._._._._._._._._._._
 72
    65
 73
     4
 40
0.5
 49
0.25
 74
     0
 49
-0.125
 74
     0
 49
0.0
 74
     0
 49
-0.125
 74
     0
  0
LTYPE
  5
28
330
5
100
AcDbSymbolTableRecord
100
AcDbLinetypeTableRecord
  2
DASHDOTX2
 70
     0
  3
____  .  ____  .  ____  .  ____  .  ____  .  __
 72
    65
 73
     4
 40
2.0
 49
1.0
 74
     0
 49
-0.5
 74
     0
 49
0.0
 74
     0
 49
-0.5
 74
     0
  0
LTYPE
  5
29
330
5
100
AcDbSymbolTableRecord
100
AcDbLinetypeTableRecord
  2
DASHED
 70
     0
  3
__ __ __ __ __ __ __ __ __ __ __ __ __ __ __ __
 72
    65
 73
     2
 40
0.75
 49
0.5
 74
     0
 49
-0.25
 74
     0
  0
LTYPE
  5
2A
330
5
100
AcDbSymbolTableRecord
100
AcDbLinetypeTableRecord
  2
DASHED2
 70
     0
  3
_ _ _ _ _ _ _ _ _ _ _ _ _ _ _ _ _ _ _ _ _ _ _ _
 72
    65
 73
     2
 40
0.375
 49
0.25
 74
     0
 49
-0.125
 74
     0
  0
LTYPE
  5
2B
330
5
100
AcDbSymbolTableRecord
100
AcDbLinetypeTableRecord
  2
DASHEDX2
 70
     0
  3
____  ____  ____  ____  ____  ____  ____  ____ 
 72
    65
 73
     2
 40
1.5
 49
1.0
 74
     0
 49
-0.5
 74
     0
  0
LTYPE
  5
2C
330
5
100
AcDbSymbolTableRecord
100
AcDbLinetypeTableRecord
  2
DIVIDE
 70
     0
  3
____ . . ____ . . ____ . . ____ . . ____ . . __
 72
    65
 73
     6
 40
1.25
 49
0.5
 74
     0
 49
-0.25
 74
     0
 49
0.0
 74
     0
 49
-0.25
 74
     0
 49
0.0
 74
     0
 49
-0.25
 74
     0
  0
LTYPE
  5
2D
330
5
100
AcDbSymbolTableRecord
100
AcDbLinetypeTableRecord
  2
DIVIDE2
 70
     0
  3
__..__..__..__..__..__..__..__..__..__..__..__.
 72
    65
 73
     6
 40
0.625
 49
0.25
 74
     0
 49
-0.125
 74
     0
 49
0.0
 74
     0
 49
-0.125
 74
     0
 49
0.0
 74
     0
 49
-0.125
 74
     0
  0
LTYPE
  5
2E
330
5
100
AcDbSymbolTableRecord
100
AcDbLinetypeTableRecord
  2
DIVIDEX2
 70
     0
  3
________  .  .  ________  .  .  ________  .  . 
 72
    65
 73
     6
 40
2.5
 49
1.0
 74
     0
 49
-0.5
 74
     0
 49
0.0
 74
     0
 49
-0.5
 74
     0
 49
0.0
 74
     0
 49
-0.5
 74
     0
  0
LTYPE
  5
2F
330
5
100
AcDbSymbolTableRecord
100
AcDbLinetypeTableRecord
  2
DOT
 70
     0
  3
. . . . . . . . . . . . . . . . . . . . . . . .
 72
    65
 73
     2
 40
0.25
 49
0.0
 74
     0
 49
-0.25
 74
     0
  0
LTYPE
  5
30
330
5
100
AcDbSymbolTableRecord
100
AcDbLinetypeTableRecord
  2
DOT2
 70
     0
  3
...............................................
 72
    65
 73
     2
 40
0.125
 49
0.0
 74
     0
 49
-0.125
 74
     0
  0
LTYPE
  5
31
330
5
100
AcDbSymbolTableRecord
100
AcDbLinetypeTableRecord
  2
DOTX2
 70
     0
  3
.  .  .  .  .  .  .  .  .  .  .  .  .  .  .  . 
 72
    65
 73
     2
 40
0.5
 49
0.0
 74
     0
 49
-0.5
 74
     0
  0
LTYPE
  5
32
330
5
100
AcDbSymbolTableRecord
100
AcDbLinetypeTableRecord
  2
HIDDEN
 70
     0
  3
__ __ __ __ __ __ __ __ __ __ __ __ __ __ __ __
 72
    65
 73
     2
 40
0.375
 49
0.25
 74
     0
 49
-0.125
 74
     0
  0
LTYPE
  5
33
330
5
100
AcDbSymbolTableRecord
100
AcDbLinetypeTableRecord
  2
HIDDEN2
 70
     0
  3
_ _ _ _ _ _ _ _ _ _ _ _ _ _ _ _ _ _ _ _ _ _ _ _
 72
    65
 73
     2
 40
0.1875
 49
0.125
 74
     0
 49
-0.0625
 74
     0
  0
LTYPE
  5
34
330
5
100
AcDbSymbolTableRecord
100
AcDbLinetypeTableRecord
  2
HIDDENX2
 70
     0
  3
____ ____ ____ ____ ____ ____ ____ ____ ____ __
 72
    65
 73
     2
 40
0.75
 49
0.5
 74
     0
 49
-0.25
 74
     0
  0
LTYPE
  5
35
330
5
100
AcDbSymbolTableRecord
100
AcDbLinetypeTableRecord
  2
PHANTOM
 70
     0
  3
______  __  __  ______  __  __  ______  __  __ 
 72
    65
 73
     6
 40
2.5
 49
1.25
 74
     0
 49
-0.25
 74
     0
 49
0.25
 74
     0
 49
-0.25
 74
     0
 49
0.25
 74
     0
 49
-0.25
 74
     0
  0
LTYPE
  5
36
330
5
100
AcDbSymbolTableRecord
100
AcDbLinetypeTableRecord
  2
PHANTOM2
 70
     0
  3
___ _ _ ___ _ _ ___ _ _ ___ _ _ ___ _ _ ___ _ _
 72
    65
 73
     6
 40
1.25
 49
0.625
 74
     0
 49
-0.125
 74
     0
 49
0.125
 74
     0
 49
-0.125
 74
     0
 49
0.125
 74
     0
 49
-0.125
 74
     0
  0
LTYPE
  5
37
330
5
100
AcDbSymbolTableRecord
100
AcDbLinetypeTableRecord
  2
PHANTOMX2
 70
     0
  3
____________    ____    ____    ____________   
 72
    65
 73
     6
 40
5.0
 49
2.5
 74
     0
 49
-0.5
 74
     0
 49
0.5
 74
     0
 49
-0.5
 74
     0
 49
0.5
 74
     0
 49
-0.5
 74
     0
  0
ENDTAB
  0
TABLE
  2
LAYER
  5
2
330
0
100
AcDbSymbolTable
 70
     2
  0
LAYER
  5
E
330
2
100
AcDbSymbolTableRecord
100
AcDbLayerTableRecord
  2
0
 70
     0
 62
     7
  6
CONTINUOUS
370
    -3
390
37F
  0
LAYER
  5
39
330
2
100
AcDbSymbolTableRecord
100
AcDbLayerTableRecord
  2
LEVEL001
 70
     0
 62
     7
  6
CONTINUOUS
370
    -3
390
37F
  0
ENDTAB
  0
TABLE
  2
STYLE
  5
3
330
0
100
AcDbSymbolTable
 70
     2
  0
STYLE
  5
F
330
3
100
AcDbSymbolTableRecord
100
AcDbTextStyleTableRecord
  2
STANDARD
 70
     0
 40
0.0
 41
1.0
 50
0.0
 71
     0
 42
0.2
  3
TXT
  4
BIGFONT
  0
STYLE
  5
38
330
3
100
AcDbSymbolTableRecord
100
AcDbTextStyleTableRecord
  2
STANDARD1
 70
     4
 40
0.0
 41
1.0
 50
0.0
 71
     0
 42
0.2
  3
TXT
  4
BIGFONT
  0
ENDTAB
  0
TABLE
  2
VIEW
  5
6
330
0
100
AcDbSymbolTable
 70
     0
  0
ENDTAB
  0
TABLE
  2
UCS
  5
7
330
0
100
AcDbSymbolTable
 70
     0
  0
ENDTAB
  0
TABLE
  2
APPID
  5
9
330
0
100
AcDbSymbolTable
 70
     1
  0
APPID
  5
10
330
9
100
AcDbSymbolTableRecord
100
AcDbRegAppTableRecord
  2
ACAD
 70
     0
  0
ENDTAB
  0
TABLE
  2
DIMSTYLE
  5
A
330
0
100
AcDbSymbolTable
 70
     1
100
AcDbDimStyleTable
  0
DIMSTYLE
105
1D
102
{ACAD_REACTORS
330
1B
102
}
330
A
100
AcDbSymbolTableRecord
100
AcDbDimStyleTableRecord
  2
STANDARD
 70
     0
178
     0
340
F
  0
ENDTAB
  0
TABLE
  2
BLOCK_RECORD
  5
1
330
0
100
AcDbSymbolTable
 70
     0
  0
BLOCK_RECORD
  5
18
330
1
100
AcDbSymbolTableRecord
100
AcDbBlockTableRecord
  2
*MODEL_SPACE
340
33D
  0
BLOCK_RECORD
  5
15
330
1
100
AcDbSymbolTableRecord
100
AcDbBlockTableRecord
  2
*PAPER_SPACE
340
33E
  0
ENDTAB
  0
ENDSEC
  0
SECTION
  2
BLOCKS
  0
BLOCK
  5
19
330
18
100
AcDbEntity
  8
0
100
AcDbBlockBegin
  2
*MODEL_SPACE
 70
     0
 10
0.0
 20
0.0
 30
0.0
  3
*MODEL_SPACE
  1
*MODEL_SPACE
  0
ENDBLK
  5
1A
330
18
100
AcDbEntity
  8
0
100
AcDbBlockEnd
  0
BLOCK
  5
16
330
15
100
AcDbEntity
 67
     1
  8
0
100
AcDbBlockBegin
  2
*PAPER_SPACE
 70
     0
 10
0.0
 20
0.0
 30
0.0
  3
*PAPER_SPACE
  1
*PAPER_SPACE
  0
ENDBLK
  5
17
330
15
100
AcDbEntity
 67
     1
  8
0
100
AcDbBlockEnd
  0
ENDSEC
  0
SECTION
  2
ENTITIES
  0
LWPOLYLINE
  5
3A
330
18
100
AcDbEntity
  8
LEVEL001
  6
Continuous
 62
     3
370
    20
100
AcDbPolyline
 90
        4
 70
     1
 43
0.0
 10
10.0
 20
10.0
 10
410.0
 20
10.0
 10
410.0
 20
287.0
 10
10.0
 20
287.0
  0
LWPOLYLINE
  5
3B
330
18
100
AcDbEntity
  8
LEVEL001
  6
Continuous
 62
     3
370
    20
100
AcDbPolyline
 90
        4
 70
     1
 43
0.0
 10
346.0
 20
10.0
 10
410.0
 20
10.0
 10
410.0
 20
287.0
 10
346.0
 20
287.0
  0
LINE
  5
3C
330
18
100
AcDbEntity
  8
LEVEL001
  6
Continuous
 62
     3
370
    20
100
AcDbLine
 10
346.0
 20
20.0
 30
0.0
 11
410.0
 21
20.0
 31
0.0
  0
LINE
  5
3D
330
18
100
AcDbEntity
  8
LEVEL001
  6
Continuous
 62
     3
370
    20
100
AcDbLine
 10
346.0
 20
30.0
 30
0.0
 11
410.0
 21
30.0
 31
0.0
  0
LINE
  5
3E
330
18
100
AcDbEntity
  8
LEVEL001
  6
Continuous
 62
     3
370
    20
100
AcDbLine
 10
346.0
 20
40.0
 30
0.0
 11
410.0
 21
40.0
 31
0.0
  0
LINE
  5
3F
330
18
100
AcDbEntity
  8
LEVEL001
  6
Continuous
 62
     3
370
    20
100
AcDbLine
 10
346.0
 20
50.0
 30
0.0
 11
410.0
 21
50.0
 31
0.0
  0
LINE
  5
40
330
18
100
AcDbEntity
  8
LEVEL001
  6
Continuous
 62
     3
370
    20
100
AcDbLine
 10
346.0
 20
60.0
 30
0.0
 11
410.0
 21
60.0
 31
0.0
  0
TEXT
  5
41
330
18
100
AcDbEntity
  8
LEVEL001
 62
     3
370
    20
100
AcDbText
 10
349.97305288127
 20
230.40689837639
 30
0.0
 40
3.0
  1
 制
 41
0.75
 72
     5
 11
354.47305288127
 21
230.40689837639
 31
0.0
100
AcDbText
  0
TEXT
  5
42
330
18
100
AcDbEntity
  8
LEVEL001
 62
     3
370
    20
100
AcDbText
 10
349.97305288127
 20
226.40689837639
 30
0.0
 40
3.0
  1
 定
 41
0.75
 72
     5
 11
354.47305288127
 21
226.40689837639
 31
0.0
100
AcDbText
  0
TEXT
  5
43
330
18
100
AcDbEntity
  8
LEVEL001
 62
     3
370
    20
100
AcDbText
 10
349.97305288127
 20
222.40689837639
 30
0.0
 40
3.0
  1
 風
 41
0.75
 72
     5
 11
354.47305288127
 21
222.40689837639
 31
0.0
100
AcDbText
  0
TEXT
  5
44
330
18
100
AcDbEntity
  8
LEVEL001
 62
     3
370
    20
100
AcDbText
 10
349.97305288127
 20
218.40689837639
 30
0.0
 40
3.0
  1
 速
 41
0.75
 72
     5
 11
354.47305288127
 21
218.40689837639
 31
0.0
100
AcDbText
  0
TEXT
  5
45
330
18
100
AcDbEntity
  8
LEVEL001
 62
     3
370
    20
100
AcDbText
 10
349.97305288127
 20
214.40689837639
 30
0.0
 40
3.0
  1
(Vo)
 41
0.5
 72
     5
 11
355.97305288127
 21
214.40689837639
 31
0.0
100
AcDbText
  0
LINE
  5
46
330
18
100
AcDbEntity
  8
LEVEL001
  6
Continuous
 62
     3
370
    20
100
AcDbLine
 10
346.0
 20
90.0
 30
0.0
 11
410.0
 21
90.0
 31
0.0
  0
LINE
  5
47
330
18
100
AcDbEntity
  8
LEVEL001
  6
Continuous
 62
     3
370
    20
100
AcDbLine
 10
346.0
 20
85.0
 30
0.0
 11
410.0
 21
85.0
 31
0.0
  0
LINE
  5
48
330
18
100
AcDbEntity
  8
LEVEL001
  6
Continuous
 62
     3
370
    20
100
AcDbLine
 10
346.0
 20
95.0
 30
0.0
 11
410.0
 21
95.0
 31
0.0
  0
LINE
  5
49
330
18
100
AcDbEntity
  8
LEVEL001
  6
Continuous
 62
     3
370
    20
100
AcDbLine
 10
346.0
 20
100.0
 30
0.0
 11
410.0
 21
100.0
 31
0.0
  0
LINE
  5
4A
330
18
100
AcDbEntity
  8
LEVEL001
  6
Continuous
 62
     3
370
    20
100
AcDbLine
 10
346.0
 20
110.0
 30
0.0
 11
410.0
 21
110.0
 31
0.0
  0
LINE
  5
4B
330
18
100
AcDbEntity
  8
LEVEL001
  6
Continuous
 62
     3
370
    20
100
AcDbLine
 10
346.0
 20
120.0
 30
0.0
 11
410.0
 21
120.0
 31
0.0
  0
LINE
  5
4C
330
18
100
AcDbEntity
  8
LEVEL001
  6
Continuous
 62
     3
370
    20
100
AcDbLine
 10
346.0
 20
130.0
 30
0.0
 11
410.0
 21
130.0
 31
0.0
  0
LINE
  5
4D
330
18
100
AcDbEntity
  8
LEVEL001
  6
Continuous
 62
     3
370
    20
100
AcDbLine
 10
346.0
 20
140.0
 30
0.0
 11
410.0
 21
140.0
 31
0.0
  0
LINE
  5
4E
330
18
100
AcDbEntity
  8
LEVEL001
  6
Continuous
 62
     3
370
    20
100
AcDbLine
 10
354.0
 20
100.0
 30
0.0
 11
354.0
 21
80.0
 31
0.0
  0
LINE
  5
4F
330
18
100
AcDbEntity
  8
LEVEL001
  6
Continuous
 62
     3
370
    20
100
AcDbLine
 10
346.0
 20
105.0
 30
0.0
 11
410.0
 21
105.0
 31
0.0
  0
LINE
  5
50
330
18
100
AcDbEntity
  8
LEVEL001
  6
Continuous
 62
     3
370
    20
100
AcDbLine
 10
346.0
 20
115.0
 30
0.0
 11
410.0
 21
115.0
 31
0.0
  0
LINE
  5
51
330
18
100
AcDbEntity
  8
LEVEL001
  6
Continuous
 62
     3
370
    20
100
AcDbLine
 10
346.0
 20
125.0
 30
0.0
 11
410.0
 21
125.0
 31
0.0
  0
LINE
  5
52
330
18
100
AcDbEntity
  8
LEVEL001
  6
Continuous
 62
     3
370
    20
100
AcDbLine
 10
346.0
 20
135.0
 30
0.0
 11
410.0
 21
135.0
 31
0.0
  0
LINE
  5
53
330
18
100
AcDbEntity
  8
LEVEL001
  6
Continuous
 62
     3
370
    20
100
AcDbLine
 10
380.0
 20
100.0
 30
0.0
 11
380.0
 21
85.0
 31
0.0
  0
LINE
  5
54
330
18
100
AcDbEntity
  8
LEVEL001
  6
Continuous
 62
     3
370
    20
100
AcDbLine
 10
351.0
 20
140.0
 30
0.0
 11
351.0
 21
100.0
 31
0.0
  0
LINE
  5
55
330
18
100
AcDbEntity
  8
LEVEL001
  6
Continuous
 62
     3
370
    20
100
AcDbLine
 10
381.0
 20
140.0
 30
0.0
 11
381.0
 21
100.0
 31
0.0
  0
LINE
  5
56
330
18
100
AcDbEntity
  8
LEVEL001
  6
Continuous
 62
     3
370
    20
100
AcDbLine
 10
386.0
 20
140.0
 30
0.0
 11
386.0
 21
100.0
 31
0.0
  0
LINE
  5
57
330
18
100
AcDbEntity
  8
LEVEL001
  6
Continuous
 62
     3
370
    20
100
AcDbLine
 10
346.0
 20
80.0
 30
0.0
 11
410.0
 21
80.0
 31
0.0
  0
TEXT
  5
58
330
18
100
AcDbEntity
  8
LEVEL001
 62
     3
370
    20
100
AcDbText
 10
347.75
 20
116.0
 30
0.0
 40
3.0
  1
２
 41
0.5
 72
     5
 11
349.25
 21
116.0
 31
0.0
100
AcDbText
  0
TEXT
  5
59
330
18
100
AcDbEntity
  8
LEVEL001
 62
     3
370
    20
100
AcDbText
 10
346.25
 20
111.0
 30
0.0
 40
3.0
  1
１－２
 41
0.5
 72
     5
 11
350.75
 21
111.0
 31
0.0
100
AcDbText
  0
TEXT
  5
5A
330
18
100
AcDbEntity
  8
LEVEL001
 62
     3
370
    20
100
AcDbText
 10
346.25
 20
106.0
 30
0.0
 40
3.0
  1
１－１
 41
0.5
 72
     5
 11
350.75
 21
106.0
 31
0.0
100
AcDbText
  0
TEXT
  5
5B
330
18
100
AcDbEntity
  8
LEVEL001
 62
     3
370
    20
100
AcDbText
 10
382.75
 20
106.0
 30
0.0
 40
3.0
  1
１
 41
0.5
 72
     5
 11
384.25
 21
106.0
 31
0.0
100
AcDbText
  0
TEXT
  5
5C
330
18
100
AcDbEntity
  8
LEVEL001
 62
     3
370
    20
100
AcDbText
 10
382.75
 20
111.0
 30
0.0
 40
3.0
  1
１
 41
0.5
 72
     5
 11
384.25
 21
111.0
 31
0.0
100
AcDbText
  0
TEXT
  5
5D
330
18
100
AcDbEntity
  8
LEVEL001
 62
     3
370
    20
100
AcDbText
 10
382.75
 20
116.0
 30
0.0
 40
3.0
  1
１
 41
0.5
 72
     5
 11
384.25
 21
116.0
 31
0.0
100
AcDbText
  0
LINE
  5
5E
330
18
100
AcDbEntity
  8
LEVEL001
  6
Continuous
 62
     3
370
    20
100
AcDbLine
 10
73.065993731221
 20
19.487276730688
 30
0.0
 11
98.065993731221
 21
19.487276730688
 31
0.0
  0
TEXT
  5
5F
330
18
100
AcDbEntity
  8
LEVEL001
 62
     3
370
    20
100
AcDbText
 10
293.06192480268
 20
45.876099498991
 30
0.0
 40
5.0
  1
Ｓ＝１：５
 41
0.58
 72
     5
 11
307.56192480268
 21
45.876099498991
 31
0.0
100
AcDbText
  0
TEXT
  5
60
330
18
100
AcDbEntity
  8
LEVEL001
 62
     3
370
    20
100
AcDbText
 10
275.81192480268
 20
51.876099498991
 30
0.0
 40
5.0
  1
グランドカバー詳細
 41
1.0888888888889
 72
     5
 11
324.81192480268
 21
51.876099498991
 31
0.0
100
AcDbText
  0
LINE
  5
61
330
18
100
AcDbEntity
  8
LEVEL001
  6
Continuous
 62
     3
370
    20
100
AcDbLine
 10
273.31192480268
 20
50.876099498991
 30
0.0
 11
327.31192480268
 21
50.876099498991
 31
0.0
  0
LINE
  5
62
330
18
100
AcDbEntity
  8
LEVEL001
  6
DASHDOT
 62
     1
370
    15
100
AcDbLine
 10
301.49701451906
 20
126.15190539389
 30
0.0
 11
301.49701451906
 21
81.494603215024
 31
0.0
  0
TEXT
  5
63
330
18
100
AcDbEntity
  8
LEVEL001
 62
     3
370
    20
100
AcDbText
 10
347.0
 20
26.0
 30
0.0
 40
3.0
  1
図面Ｎｏ．
 72
     5
 11
362.0
 21
26.0
 31
0.0
100
AcDbText
  0
TEXT
  5
64
330
18
100
AcDbEntity
  8
LEVEL001
 62
     3
370
    20
100
AcDbText
 10
347.0
 20
36.0
 30
0.0
 40
3.0
  1
品名コード
 72
     5
 11
362.0
 21
36.0
 31
0.0
100
AcDbText
  0
TEXT
  5
65
330
18
100
AcDbEntity
  8
LEVEL001
 62
     3
370
    20
100
AcDbText
 10
347.0
 20
46.0
 30
0.0
 40
3.0
  1
型式
 72
     5
 11
353.0
 21
46.0
 31
0.0
100
AcDbText
  0
TEXT
  5
66
330
18
100
AcDbEntity
  8
LEVEL001
 62
     3
370
    20
100
AcDbText
 10
347.0
 20
56.0
 30
0.0
 40
3.0
  1
品名
 72
     5
 11
353.0
 21
56.0
 31
0.0
100
AcDbText
  0
TEXT
  5
67
330
18
100
AcDbEntity
  8
LEVEL001
 62
     3
370
    20
100
AcDbText
 10
347.0
 20
76.0
 30
0.0
 40
3.0
  1
件名
 72
     5
 11
353.0
 21
76.0
 31
0.0
100
AcDbText
  0
TEXT
  5
68
330
18
100
AcDbEntity
  8
LEVEL001
 62
     3
370
    20
100
AcDbText
 10
346.75
 20
81.0
 30
0.0
 40
3.0
  1
尺度
 72
     5
 11
352.75
 21
81.0
 31
0.0
100
AcDbText
  0
TEXT
  5
69
330
18
100
AcDbEntity
  8
LEVEL001
 62
     3
370
    20
100
AcDbText
 10
346.75
 20
86.0
 30
0.0
 40
3.0
  1
承認
 72
     5
 11
352.75
 21
86.0
 31
0.0
100
AcDbText
  0
TEXT
  5
6A
330
18
100
AcDbEntity
  8
LEVEL001
 62
     3
370
    20
100
AcDbText
 10
346.75
 20
91.0
 30
0.0
 40
3.0
  1
審査
 72
     5
 11
352.75
 21
91.0
 31
0.0
100
AcDbText
  0
TEXT
  5
6B
330
18
100
AcDbEntity
  8
LEVEL001
 62
     3
370
    20
100
AcDbText
 10
346.75
 20
96.0
 30
0.0
 40
3.0
  1
作成
 72
     5
 11
352.75
 21
96.0
 31
0.0
100
AcDbText
  0
TEXT
  5
6C
330
18
100
AcDbEntity
  8
LEVEL001
 62
     3
370
    20
100
AcDbText
 10
346.0
 20
101.0
 30
0.0
 40
3.0
  1
品番
 41
0.83333333333333
 72
     5
 11
351.0
 21
101.0
 31
0.0
100
AcDbText
  0
TEXT
  5
6D
330
18
100
AcDbEntity
  8
LEVEL001
 62
     3
370
    20
100
AcDbText
 10
357.5
 20
101.0
 30
0.0
 40
3.0
  1
品　　　名
 72
     5
 11
372.5
 21
101.0
 31
0.0
100
AcDbText
  0
TEXT
  5
6E
330
18
100
AcDbEntity
  8
LEVEL001
 62
     3
370
    20
100
AcDbText
 10
381.0
 20
101.0
 30
0.0
 40
3.0
  1
数量
 41
0.83333333333333
 72
     5
 11
386.0
 21
101.0
 31
0.0
100
AcDbText
  0
TEXT
  5
6F
330
18
100
AcDbEntity
  8
LEVEL001
 62
     3
370
    20
100
AcDbText
 10
389.5
 20
101.0
 30
0.0
 40
3.0
  1
材　　　質
 72
     5
 11
404.5
 21
101.0
 31
0.0
100
AcDbText
  0
TEXT
  5
70
330
18
100
AcDbEntity
  8
LEVEL001
 62
     3
370
    20
100
AcDbText
 10
352.0
 20
116.0
 30
0.0
 40
3.0
  1
キャップ
 72
     5
 11
364.0
 21
116.0
 31
0.0
100
AcDbText
  0
TEXT
  5
71
330
18
100
AcDbEntity
  8
LEVEL001
 62
     3
370
    20
100
AcDbText
 10
356.6
 20
81.0
 30
0.0
 40
3.0
  1
１：５　１：４０
 72
     5
 11
380.6
 21
81.0
 31
0.0
100
AcDbText
  0
TEXT
  5
72
330
18
100
AcDbEntity
  8
LEVEL001
 62
     3
370
    20
100
AcDbText
 10
352.0
 20
111.0
 30
0.0
 40
3.0
  1
先端ポール
 72
     5
 11
367.0
 21
111.0
 31
0.0
100
AcDbText
  0
TEXT
  5
73
330
18
100
AcDbEntity
  8
LEVEL001
 62
     3
370
    20
100
AcDbText
 10
352.0
 20
106.0
 30
0.0
 40
3.0
  1
根元ポール
 72
     5
 11
367.0
 21
106.0
 31
0.0
100
AcDbText
  0
TEXT
  5
74
330
18
100
AcDbEntity
  8
LEVEL001
 62
     3
370
    20
100
AcDbText
 10
262.31192480268
 20
33.716981116641
 30
0.0
 40
4.0
  1
※グランドカバーは、ポール埋込部の
 41
1.1176470588235
 72
     5
 11
338.31192480268
 21
33.716981116641
 31
0.0
100
AcDbText
  0
TEXT
  5
75
330
18
100
AcDbEntity
  8
LEVEL001
 62
     3
370
    20
100
AcDbText
 10
262.31192480268
 20
28.383647783307
 30
0.0
 40
4.0
  1
　化粧用で、別梱包部品です。
 41
1.1160714285714
 72
     5
 11
324.81192480268
 21
28.383647783307
 31
0.0
100
AcDbText
  0
LWPOLYLINE
  5
76
330
18
100
AcDbEntity
  8
LEVEL001
  6
Continuous
 62
     3
370
    20
100
AcDbPolyline
 90
        5
 70
     0
 43
0.0
 10
87.637056743088
 20
183.50860029282
 10
87.637056743088
 20
227.88360029282
 10
87.824556743088
 20
252.25860029282
 10
87.824556743088
 20
258.50860029283
 10
88.762056743088
 20
258.50860029282
  0
LINE
  5
77
330
18
100
AcDbEntity
  8
LEVEL001
  6
Continuous
 62
     3
370
    20
100
AcDbLine
 10
87.637056743088
 20
183.50860029282
 30
0.0
 11
88.762056743088
 21
183.50860029282
 31
0.0
  0
LWPOLYLINE
  5
78
330
18
100
AcDbEntity
  8
LEVEL001
  6
Continuous
 62
     3
370
    20
100
AcDbPolyline
 90
        5
 70
     0
 43
0.0
 10
89.887056743088
 20
183.50860029282
 10
89.887056743088
 20
227.88360029282
 10
89.699556743088
 20
252.25860029282
 10
89.699556743088
 20
258.50860029283
 10
88.762056743088
 20
258.50860029282
  0
LINE
  5
79
330
18
100
AcDbEntity
  8
LEVEL001
  6
Continuous
 62
     3
370
    20
100
AcDbLine
 10
89.887056743088
 20
183.50860029282
 30
0.0
 11
88.762056743088
 21
183.50860029282
 31
0.0
  0
LINE
  5
7A
330
18
100
AcDbEntity
  8
LEVEL001
  6
DASHDOT
 62
     1
370
    15
100
AcDbLine
 10
88.762056743088
 20
262.99778797335
 30
0.0
 11
88.762056743088
 21
54.286612000958
 31
0.0
  0
ARC
  5
7B
330
18
100
AcDbEntity
  8
LEVEL001
  6
Continuous
 62
     3
370
    20
100
AcDbCircle
 10
90.637056743088
 20
83.908600292816
 30
0.0
 40
0.925
100
AcDbArc
 50
0.0000000000021126
 51
89.999999999999
  0
LINE
  5
7C
330
18
100
AcDbEntity
  8
LEVEL001
  6
Continuous
 62
     3
370
    20
100
AcDbLine
 10
91.562056743088
 20
83.908600292816
 30
0.0
 11
91.562056743088
 21
83.508600292816
 31
0.0
  0
ARC
  5
7D
330
18
100
AcDbEntity
  8
LEVEL001
  6
Continuous
 62
     3
370
    20
100
AcDbCircle
 10
86.887056743088
 20
83.908600292816
 30
0.0
 40
0.925
100
AcDbArc
 50
90.0
 51
180.0
  0
LINE
  5
7E
330
18
100
AcDbEntity
  8
LEVEL001
  6
Continuous
 62
     3
370
    20
100
AcDbLine
 10
85.962056743088
 20
83.908600292816
 30
0.0
 11
85.962056743088
 21
83.508600292816
 31
0.0
  0
LINE
  5
7F
330
18
100
AcDbEntity
  8
LEVEL001
  6
Continuous
 62
     3
370
    20
100
AcDbLine
 10
88.762056743088
 20
84.833600292816
 30
0.0
 11
86.887056743088
 21
84.833600292816
 31
0.0
  0
LINE
  5
80
330
18
100
AcDbEntity
  8
LEVEL001
  6
Continuous
 62
     3
370
    20
100
AcDbLine
 10
88.762056743088
 20
84.833600292816
 30
0.0
 11
90.637056743088
 21
84.833600292816
 31
0.0
  0
LWPOLYLINE
  5
81
330
18
100
AcDbEntity
  8
LEVEL001
  6
Continuous
 62
     3
370
    20
100
AcDbPolyline
 90
        4
 70
     0
 43
0.0
 10
90.262056743088
 20
84.833600292816
 10
90.262056743088
 20
128.50860029282
 10
89.887056743088
 20
177.25860029282
 10
89.887056743088
 20
183.50860029282
  0
LWPOLYLINE
  5
82
330
18
100
AcDbEntity
  8
LEVEL001
  6
Continuous
 62
     3
370
    20
100
AcDbPolyline
 90
        4
 70
     0
 43
0.0
 10
87.262056743088
 20
84.833600292816
 10
87.262056743088
 20
128.50860029282
 10
87.637056743088
 20
177.25860029282
 10
87.637056743088
 20
183.50860029282
  0
LINE
  5
83
330
18
100
AcDbEntity
  8
LEVEL001
  6
Continuous
 62
     3
370
    20
100
AcDbLine
 10
313.49701451906
 20
123.09522752805
 30
0.0
 11
313.49701451906
 21
84.495227528046
 31
0.0
  0
LINE
  5
84
330
18
100
AcDbEntity
  8
LEVEL001
  6
Continuous
 62
     3
370
    20
100
AcDbLine
 10
312.89701451906
 20
123.41495121846
 30
0.0
 11
312.89701451906
 21
84.81495121846
 31
0.0
  0
LINE
  5
85
330
18
100
AcDbEntity
  8
LEVEL001
  6
Continuous
 62
     3
370
    20
100
AcDbLine
 10
289.49701451906
 20
96.495227528045
 30
0.0
 11
289.49701451906
 21
84.495227528046
 31
0.0
  0
ARC
  5
86
330
18
100
AcDbEntity
  8
LEVEL001
  6
Continuous
 62
     3
370
    20
100
AcDbCircle
 10
295.49701451906
 20
133.48753237346
 30
0.0
 40
12.0
100
AcDbArc
 50
240.0
 51
300.0
  0
ARC
  5
87
330
18
100
AcDbEntity
  8
LEVEL001
  6
Continuous
 62
     3
370
    20
100
AcDbCircle
 10
295.49701451906
 20
112.70292268263
 30
0.0
 40
12.0
100
AcDbArc
 50
60.000000000002
 51
120.0
  0
ARC
  5
88
330
18
100
AcDbEntity
  8
LEVEL001
  6
Continuous
 62
     3
370
    20
100
AcDbCircle
 10
307.49701451906
 20
112.70292268263
 30
0.0
 40
12.0
100
AcDbArc
 50
59.99999999999801
 51
120.0
  0
ARC
  5
89
330
18
100
AcDbEntity
  8
LEVEL001
  6
Continuous
 62
     3
370
    20
100
AcDbCircle
 10
295.49701451906
 20
112.70292268263
 30
0.0
 40
11.4
100
AcDbArc
 50
61.881957885558
 51
118.11804211444
  0
ARC
  5
8A
330
18
100
AcDbEntity
  8
LEVEL001
  6
Continuous
 62
     3
370
    20
100
AcDbCircle
 10
307.49701451906
 20
74.102922682633
 30
0.0
 40
12.0
100
AcDbArc
 50
59.99999999999801
 51
120.0
  0
ARC
  5
8B
330
18
100
AcDbEntity
  8
LEVEL001
  6
Continuous
 62
     3
370
    20
100
AcDbCircle
 10
295.49701451906
 20
94.88753237346
 30
0.0
 40
12.0
100
AcDbArc
 50
240.0
 51
300.0
  0
TEXT
  5
8C
330
18
100
AcDbEntity
  8
LEVEL001
 62
     3
370
    20
100
AcDbText
 10
387.0
 20
116.0
 30
0.0
 40
3.0
  1
ＡＤＣ５/Ａ１１００－Ｏ
 41
0.63888888888889
 72
     5
 11
410.0
 21
116.0
 31
0.0
100
AcDbText
  0
LINE
  5
8D
330
18
100
AcDbEntity
  8
LEVEL001
  6
Continuous
 62
     3
370
    20
100
AcDbLine
 10
91.562056743088
 20
83.508600292816
 30
0.0
 11
85.962056743088
 21
83.508600292816
 31
0.0
  0
LWPOLYLINE
  5
8E
330
18
100
AcDbEntity
  8
LEVEL001
  6
Continuous
 62
     3
370
    20
100
AcDbPolyline
 90
        4
 70
     0
 43
0.0
 10
82.512056743088
 20
58.508600292816
 10
82.512056743088
 20
83.508600292816
 10
95.012056743088
 20
83.508600292816
 10
95.012056743088
 20
58.508600292816
  0
LWPOLYLINE
  5
8F
330
18
100
AcDbEntity
  8
LEVEL001
  6
Continuous
 62
     3
370
    20
100
AcDbPolyline
 90
        4
 70
     0
 43
0.0
 10
89.137056743088
 20
58.508600292816
 10
89.137056743088
 20
54.758600292816
 10
88.387056743088
 20
54.758600292816
 10
88.387056743088
 20
58.508600292816
  0
LINE
  5
90
330
18
100
AcDbEntity
  8
LEVEL001
  6
Continuous
 62
     3
370
    20
100
AcDbLine
 10
86.762056743088
 20
83.508600292816
 30
0.0
 11
86.762056743088
 21
58.508600292816
 31
0.0
  0
LINE
  5
91
330
18
100
AcDbEntity
  8
LEVEL001
  6
Continuous
 62
     3
370
    20
100
AcDbLine
 10
90.762056743088
 20
58.508600292816
 30
0.0
 11
90.762056743088
 21
83.508600292816
 31
0.0
  0
LINE
  5
92
330
18
100
AcDbEntity
  8
LEVEL001
  6
Continuous
 62
     3
370
    20
100
AcDbLine
 10
80.012056743088
 20
58.008600292816
 30
0.0
 11
88.387056743088
 21
58.008600292816
 31
0.0
  0
LINE
  5
93
330
18
100
AcDbEntity
  8
LEVEL001
  6
Continuous
 62
     3
370
    20
100
AcDbLine
 10
89.137056743088
 20
58.008600292816
 30
0.0
 11
97.512056743088
 21
58.008600292816
 31
0.0
  0
LWPOLYLINE
  5
94
330
18
100
AcDbEntity
  8
LEVEL001
  6
Continuous
 62
     3
370
    20
100
AcDbPolyline
 90
        6
 70
     0
 43
0.0
 10
89.137056743088
 20
56.008600292816
 10
97.512056743088
 20
56.008600292816
 10
97.512056743088
 20
58.508600292816
 10
80.012056743088
 20
58.508600292816
 10
80.012056743088
 20
56.008600292816
 10
88.387056743088
 20
56.008600292816
  0
LINE
  5
95
330
18
100
AcDbEntity
  8
LEVEL001
  6
Continuous
 62
     3
370
    20
100
AcDbLine
 10
80.292833149492
 20
58.008600292816
 30
0.0
 11
80.699241014024
 21
57.341933626149
 31
0.0
  0
LINE
  5
96
330
18
100
AcDbEntity
  8
LEVEL001
  6
Continuous
 62
     3
370
    20
100
AcDbLine
 10
81.042833149492
 20
58.008600292816
 30
0.0
 11
80.012056743088
 21
56.008600292816
 31
0.0
  0
LINE
  5
97
330
18
100
AcDbEntity
  8
LEVEL001
  6
Continuous
 62
     3
370
    20
100
AcDbLine
 10
80.355648878556
 20
56.675266959483
 30
0.0
 11
80.762056743088
 21
56.008600292816
 31
0.0
  0
LINE
  5
98
330
18
100
AcDbEntity
  8
LEVEL001
  6
Continuous
 62
     3
370
    20
100
AcDbLine
 10
83.542833149492
 20
58.008600292816
 30
0.0
 11
82.512056743088
 21
56.008600292816
 31
0.0
  0
LINE
  5
99
330
18
100
AcDbEntity
  8
LEVEL001
  6
Continuous
 62
     3
370
    20
100
AcDbLine
 10
82.792833149492
 20
58.008600292816
 30
0.0
 11
83.199241014024
 21
57.341933626149
 31
0.0
  0
LINE
  5
9A
330
18
100
AcDbEntity
  8
LEVEL001
  6
Continuous
 62
     3
370
    20
100
AcDbLine
 10
82.855648878556
 20
56.675266959483
 30
0.0
 11
83.262056743088
 21
56.008600292816
 31
0.0
  0
LINE
  5
9B
330
18
100
AcDbEntity
  8
LEVEL001
  6
Continuous
 62
     3
370
    20
100
AcDbLine
 10
86.042833149492
 20
58.008600292816
 30
0.0
 11
85.012056743088
 21
56.008600292816
 31
0.0
  0
LINE
  5
9C
330
18
100
AcDbEntity
  8
LEVEL001
  6
Continuous
 62
     3
370
    20
100
AcDbLine
 10
85.292833149492
 20
58.008600292816
 30
0.0
 11
85.699241014024
 21
57.341933626149
 31
0.0
  0
LINE
  5
9D
330
18
100
AcDbEntity
  8
LEVEL001
  6
Continuous
 62
     3
370
    20
100
AcDbLine
 10
85.355648878556
 20
56.675266959483
 30
0.0
 11
85.762056743088
 21
56.008600292816
 31
0.0
  0
LINE
  5
9E
330
18
100
AcDbEntity
  8
LEVEL001
  6
Continuous
 62
     3
370
    20
100
AcDbLine
 10
87.800456656977
 20
58.008600292816
 30
0.0
 11
88.206864521509
 21
57.341933626149
 31
0.0
  0
LINE
  5
9F
330
18
100
AcDbEntity
  8
LEVEL001
  6
Continuous
 62
     3
370
    20
100
AcDbLine
 10
87.863272386041
 20
56.675266959483
 30
0.0
 11
88.269680250573
 21
56.008600292816
 31
0.0
  0
LINE
  5
A0
330
18
100
AcDbEntity
  8
LEVEL001
  6
Continuous
 62
     3
370
    20
100
AcDbLine
 10
91.035906912451
 20
58.008600292816
 30
0.0
 11
90.005130506047
 21
56.008600292816
 31
0.0
  0
LINE
  5
A1
330
18
100
AcDbEntity
  8
LEVEL001
  6
Continuous
 62
     3
370
    20
100
AcDbLine
 10
90.285906912451
 20
58.008600292816
 30
0.0
 11
90.692314776983
 21
57.341933626149
 31
0.0
  0
LINE
  5
A2
330
18
100
AcDbEntity
  8
LEVEL001
  6
Continuous
 62
     3
370
    20
100
AcDbLine
 10
90.348722641515
 20
56.675266959483
 30
0.0
 11
90.755130506047
 21
56.008600292816
 31
0.0
  0
LINE
  5
A3
330
18
100
AcDbEntity
  8
LEVEL001
  6
Continuous
 62
     3
370
    20
100
AcDbLine
 10
93.544908611199
 20
58.008600292816
 30
0.0
 11
92.514132204795
 21
56.008600292816
 31
0.0
  0
LINE
  5
A4
330
18
100
AcDbEntity
  8
LEVEL001
  6
Continuous
 62
     3
370
    20
100
AcDbLine
 10
92.794908611199
 20
58.008600292816
 30
0.0
 11
93.201316475731
 21
57.341933626149
 31
0.0
  0
LINE
  5
A5
330
18
100
AcDbEntity
  8
LEVEL001
  6
Continuous
 62
     3
370
    20
100
AcDbLine
 10
92.857724340263
 20
56.675266959483
 30
0.0
 11
93.264132204795
 21
56.008600292816
 31
0.0
  0
LINE
  5
A6
330
18
100
AcDbEntity
  8
LEVEL001
  6
Continuous
 62
     3
370
    20
100
AcDbLine
 10
96.053910309948
 20
58.008600292816
 30
0.0
 11
95.023133903544
 21
56.008600292816
 31
0.0
  0
LINE
  5
A7
330
18
100
AcDbEntity
  8
LEVEL001
  6
Continuous
 62
     3
370
    20
100
AcDbLine
 10
95.303910309948
 20
58.008600292816
 30
0.0
 11
95.71031817448
 21
57.341933626149
 31
0.0
  0
LINE
  5
A8
330
18
100
AcDbEntity
  8
LEVEL001
  6
Continuous
 62
     3
370
    20
100
AcDbLine
 10
95.366726039012
 20
56.675266959483
 30
0.0
 11
95.773133903544
 21
56.008600292816
 31
0.0
  0
LINE
  5
A9
330
18
100
AcDbEntity
  8
LEVEL001
  6
Continuous
 62
     3
370
    20
100
AcDbLine
 10
88.387056743088
 20
57.691557890849
 30
0.0
 11
87.519680250573
 21
56.008600292816
 31
0.0
  0
LINE
  5
AA
330
18
100
AcDbEntity
  8
LEVEL001
  6
Continuous
 62
     3
370
    20
100
AcDbLine
 10
95.012056743088
 20
80.523041087343
 30
0.0
 11
90.762056743088
 21
78.069302443287
 31
0.0
  0
LINE
  5
AB
330
18
100
AcDbEntity
  8
LEVEL001
  6
Continuous
 62
     3
370
    20
100
AcDbLine
 10
95.012056743088
 20
80.09002838545
 30
0.0
 11
90.762056743088
 21
77.636289741394
 31
0.0
  0
LINE
  5
AC
330
18
100
AcDbEntity
  8
LEVEL001
  6
Continuous
 62
     3
370
    20
100
AcDbLine
 10
95.012056743088
 20
67.504920325021
 30
0.0
 11
90.762056743088
 21
65.051181680965
 31
0.0
  0
LINE
  5
AD
330
18
100
AcDbEntity
  8
LEVEL001
  6
Continuous
 62
     3
370
    20
100
AcDbLine
 10
95.012056743088
 20
67.071907623156
 30
0.0
 11
90.762056743088
 21
64.6181689791
 31
0.0
  0
LINE
  5
AE
330
18
100
AcDbEntity
  8
LEVEL001
  6
Continuous
 62
     3
370
    20
100
AcDbLine
 10
95.012056743088
 20
66.638894921264
 30
0.0
 11
90.762056743088
 21
64.185156277208
 31
0.0
  0
LINE
  5
AF
330
18
100
AcDbEntity
  8
LEVEL001
  6
Continuous
 62
     3
370
    20
100
AcDbLine
 10
86.762056743088
 20
76.192914068394
 30
0.0
 11
82.512056743088
 21
73.739175424338
 31
0.0
  0
LINE
  5
B0
330
18
100
AcDbEntity
  8
LEVEL001
  6
Continuous
 62
     3
370
    20
100
AcDbLine
 10
86.762056743088
 20
75.759901366528
 30
0.0
 11
82.512056743088
 21
73.306162722472
 31
0.0
  0
LINE
  5
B1
330
18
100
AcDbEntity
  8
LEVEL001
  6
Continuous
 62
     3
370
    20
100
AcDbLine
 10
86.762056743088
 20
75.326888664636
 30
0.0
 11
82.512056743088
 21
72.87315002058
 31
0.0
  0
LINE
  5
B2
330
18
100
AcDbEntity
  8
LEVEL001
  6
Continuous
 62
     3
370
    20
100
AcDbLine
 10
86.762056743088
 20
62.741780604207
 30
0.0
 11
82.512056743088
 21
60.288041960151
 31
0.0
  0
LINE
  5
B3
330
18
100
AcDbEntity
  8
LEVEL001
  6
Continuous
 62
     3
370
    20
100
AcDbLine
 10
86.762056743088
 20
62.308767902342
 30
0.0
 11
82.512056743088
 21
59.855029258286
 31
0.0
  0
LINE
  5
B4
330
18
100
AcDbEntity
  8
LEVEL001
  6
Continuous
 62
     3
370
    20
100
AcDbLine
 10
86.762056743088
 20
61.875755200449
 30
0.0
 11
82.512056743088
 21
59.422016556393
 31
0.0
  0
LWPOLYLINE
  5
B5
330
18
100
AcDbEntity
  8
LEVEL001
  6
Continuous
 62
     3
370
    20
100
AcDbPolyline
 90
        3
 70
     0
 43
0.0
 10
88.762056743088
 20
58.508600292816
 10
90.262056743088
 20
58.508600292816
 10
90.262056743088
 20
83.508600292816
  0
LWPOLYLINE
  5
B6
330
18
100
AcDbEntity
  8
LEVEL001
  6
Continuous
 62
     3
370
    20
100
AcDbPolyline
 90
        3
 70
     0
 43
0.0
 10
88.762056743088
 20
58.508600292816
 10
87.262056743088
 20
58.508600292816
 10
87.262056743088
 20
83.508600292816
  0
LINE
  5
B7
330
18
100
AcDbEntity
  8
LEVEL001
  6
Continuous
 62
     3
370
    20
100
AcDbLine
 10
96.887056743088
 20
80.261005028624
 30
0.0
 11
98.762056743088
 21
83.508600292816
 31
0.0
  0
LINE
  5
B8
330
18
100
AcDbEntity
  8
LEVEL001
  6
Continuous
 62
     3
370
    20
100
AcDbLine
 10
96.249556743088
 20
83.508600292816
 30
0.0
 11
97.505806743088
 21
81.332711465807
 31
0.0
  0
LINE
  5
B9
330
18
100
AcDbEntity
  8
LEVEL001
  6
Continuous
 62
     3
370
    20
100
AcDbLine
 10
98.762056743088
 20
83.508600292816
 30
0.0
 11
100.63705674309
 21
80.261005028624
 31
0.0
  0
LINE
  5
BA
330
18
100
AcDbEntity
  8
LEVEL001
  6
Continuous
 62
     3
370
    20
100
AcDbLine
 10
98.108242311974
 20
80.261005028624
 30
0.0
 11
99.372649527531
 21
82.451022567425
 31
0.0
  0
LINE
  5
BB
330
18
100
AcDbEntity
  8
LEVEL001
  6
Continuous
 62
     3
370
    20
100
AcDbLine
 10
99.345742311974
 20
80.261005028624
 30
0.0
 11
99.991399527531
 21
81.379316130242
 31
0.0
  0
LINE
  5
BC
330
18
100
AcDbEntity
  8
LEVEL001
  6
Continuous
 62
     3
370
    20
100
AcDbLine
 10
100.63705674309
 20
80.261005028624
 30
0.0
 11
102.51205674309
 21
83.508600292816
 31
0.0
  0
LINE
  5
BD
330
18
100
AcDbEntity
  8
LEVEL001
  6
Continuous
 62
     3
370
    20
100
AcDbLine
 10
99.999556743088
 20
83.508600292816
 30
0.0
 11
101.25580674309
 21
81.332711465807
 31
0.0
  0
LINE
  5
BE
330
18
100
AcDbEntity
  8
LEVEL001
  6
Continuous
 62
     3
370
    20
100
AcDbLine
 10
102.51205674309
 20
83.508600292816
 30
0.0
 11
104.38705674309
 21
80.261005028624
 31
0.0
  0
LINE
  5
BF
330
18
100
AcDbEntity
  8
LEVEL001
  6
Continuous
 62
     3
370
    20
100
AcDbLine
 10
101.85824231197
 20
80.261005028624
 30
0.0
 11
103.12264952753
 21
82.451022567425
 31
0.0
  0
LINE
  5
C0
330
18
100
AcDbEntity
  8
LEVEL001
  6
Continuous
 62
     3
370
    20
100
AcDbLine
 10
103.09574231197
 20
80.261005028624
 30
0.0
 11
103.74139952753
 21
81.379316130242
 31
0.0
  0
LINE
  5
C1
330
18
100
AcDbEntity
  8
LEVEL001
  6
Continuous
 62
     3
370
    20
100
AcDbLine
 10
97.487056743088
 20
83.508600292816
 30
0.0
 11
98.124556743088
 21
82.40441790299
 31
0.0
  0
LINE
  5
C2
330
18
100
AcDbEntity
  8
LEVEL001
  6
Continuous
 62
     3
370
    20
100
AcDbLine
 10
101.23705674309
 20
83.508600292816
 30
0.0
 11
101.87455674309
 21
82.40441790299
 31
0.0
  0
LINE
  5
C3
330
18
100
AcDbEntity
  8
LEVEL001
  6
Continuous
 62
     3
370
    20
100
AcDbLine
 10
95.012056743088
 20
83.508600292816
 30
0.0
 11
96.887056743088
 21
80.261005028624
 31
0.0
  0
LINE
  5
C4
330
18
100
AcDbEntity
  8
LEVEL001
  6
Continuous
 62
     3
370
    20
100
AcDbLine
 10
95.595742311974
 20
80.261005028624
 30
0.0
 11
96.241399527531
 21
81.379316130242
 31
0.0
  0
LINE
  5
C5
330
18
100
AcDbEntity
  8
LEVEL001
  6
Continuous
 62
     3
370
    20
100
AcDbLine
 10
95.012056743088
 20
81.393444842035
 30
0.0
 11
95.622649527531
 21
82.451022567425
 31
0.0
  0
LINE
  5
C6
330
18
100
AcDbEntity
  8
LEVEL001
  6
Continuous
 62
     3
370
    20
100
AcDbLine
 10
81.835278907087
 20
80.261005028624
 30
0.0
 11
82.512056743088
 21
81.433218626014
 31
0.0
  0
LINE
  5
C7
330
18
100
AcDbEntity
  8
LEVEL001
  6
Continuous
 62
     3
370
    20
100
AcDbLine
 10
95.012056743088
 20
80.956053789208
 30
0.0
 11
90.762056743088
 21
78.502315145152
 31
0.0
  0
LINE
  5
C8
330
18
100
AcDbEntity
  8
LEVEL001
  6
Continuous
 62
     3
370
    20
100
AcDbLine
 10
103.74955674309
 20
83.508600292816
 30
0.0
 11
105.00580674309
 21
81.332711465807
 31
0.0
  0
LINE
  5
C9
330
18
100
AcDbEntity
  8
LEVEL001
  6
Continuous
 62
     3
370
    20
100
AcDbLine
 10
104.98705674309
 20
83.508600292816
 30
0.0
 11
105.62455674309
 21
82.40441790299
 31
0.0
  0
LINE
  5
CA
330
18
100
AcDbEntity
  8
LEVEL001
  6
Continuous
 62
     3
370
    20
100
AcDbLine
 10
95.012056743088
 20
83.508600292816
 30
0.0
 11
109.85726110459
 21
83.508600292816
 31
0.0
  0
TEXT
  5
CB
330
18
100
AcDbEntity
  8
LEVEL001
 62
     3
370
    20
100
AcDbText
 10
104.24044490631
 20
83.851099298874
 30
0.0
 40
4.0
  1
ＧＬ
 72
     5
 11
112.24044490631
 21
83.851099298874
 31
0.0
100
AcDbText
  0
TEXT
  5
CC
330
18
100
AcDbEntity
  8
LEVEL001
 62
     3
370
    20
100
AcDbText
 10
356.6
 20
51.0
 30
0.0
 40
4.0
  1
アルミニウム合金製旗用ポール
 41
0.875
 72
     5
 11
405.6
 21
51.0
 31
0.0
100
AcDbText
  0
TEXT
  5
CD
330
18
100
AcDbEntity
  8
LEVEL001
 62
     3
370
    20
100
AcDbText
 10
96.835826017632
 20
185.96167812537
 30
0.0
 40
4.0
  1
ｔ３．０
 41
0.875
 72
     5
 11
110.83582601763
 21
185.96167812537
 31
0.0
100
AcDbText
  0
TEXT
  5
CE
330
18
100
AcDbEntity
  8
LEVEL001
 62
     3
370
    20
100
AcDbText
 10
101.54336847414
 20
131.87185225201
 30
0.0
 40
4.0
  1
ｔ３．０
 41
0.875
 72
     5
 11
115.54336847414
 21
131.87185225201
 31
0.0
100
AcDbText
  0
LINE
  5
CF
330
18
100
AcDbEntity
  8
LEVEL001
  6
Continuous
 62
     1
370
    15
100
AcDbLine
 10
313.49701451906
 20
125.09522752805
 30
0.0
 11
313.49701451906
 21
135.82215269282
 31
0.0
  0
LINE
  5
D0
330
18
100
AcDbEntity
  8
LEVEL001
  6
Continuous
 62
     1
370
    15
100
AcDbLine
 10
289.49701451906
 20
125.09522752805
 30
0.0
 11
289.49701451906
 21
135.82215269282
 31
0.0
  0
LINE
  5
D1
330
18
100
AcDbEntity
  8
LEVEL001
  6
Continuous
 62
     1
370
    15
100
AcDbLine
 10
313.49701451906
 20
133.82215269282
 30
0.0
 11
301.49701451906
 21
133.82215269282
 31
0.0
  0
LINE
  5
D2
330
18
100
AcDbEntity
  8
LEVEL001
  6
Continuous
 62
     1
370
    15
100
AcDbLine
 10
289.49701451906
 20
133.82215269282
 30
0.0
 11
301.49701451906
 21
133.82215269282
 31
0.0
  0
LINE
  5
D3
330
18
100
AcDbEntity
  8
LEVEL001
  6
Continuous
 62
     1
370
    15
100
AcDbLine
 10
313.49701451906
 20
133.82215269282
 30
0.0
 11
310.49701451906
 21
134.62600027011
 31
0.0
  0
LINE
  5
D4
330
18
100
AcDbEntity
  8
LEVEL001
  6
Continuous
 62
     1
370
    15
100
AcDbLine
 10
313.49701451906
 20
133.82215269282
 30
0.0
 11
310.49701451906
 21
133.01830511553
 31
0.0
  0
LINE
  5
D5
330
18
100
AcDbEntity
  8
LEVEL001
  6
Continuous
 62
     1
370
    15
100
AcDbLine
 10
289.49701451906
 20
133.82215269282
 30
0.0
 11
292.49701451906
 21
133.01830511553
 31
0.0
  0
LINE
  5
D6
330
18
100
AcDbEntity
  8
LEVEL001
  6
Continuous
 62
     1
370
    15
100
AcDbLine
 10
289.49701451906
 20
133.82215269282
 30
0.0
 11
292.49701451906
 21
134.62600027011
 31
0.0
  0
MTEXT
  5
D7
330
18
100
AcDbEntity
  8
LEVEL001
 62
     3
370
    20
100
AcDbMText
 10
301.49701451906
 20
135.53643840711
 30
0.0
 40
4.0
 41
0.0
 71
     8
 72
     1
  1
\A1;%%c120
 73
     1
 44
1.0
  0
TEXT
  5
D8
330
18
100
AcDbEntity
  8
LEVEL001
 62
     3
370
    20
100
AcDbText
 10
347.75
 20
121.0
 30
0.0
 40
3.0
  1
３
 41
0.5
 72
     5
 11
349.25
 21
121.0
 31
0.0
100
AcDbText
  0
TEXT
  5
D9
330
18
100
AcDbEntity
  8
LEVEL001
 62
     3
370
    20
100
AcDbText
 10
347.75
 20
126.0
 30
0.0
 40
3.0
  1
４
 41
0.5
 72
     5
 11
349.25
 21
126.0
 31
0.0
100
AcDbText
  0
TEXT
  5
DA
330
18
100
AcDbEntity
  8
LEVEL001
 62
     3
370
    20
100
AcDbText
 10
347.75
 20
131.0
 30
0.0
 40
3.0
  1
５
 41
0.5
 72
     5
 11
349.25
 21
131.0
 31
0.0
100
AcDbText
  0
TEXT
  5
DB
330
18
100
AcDbEntity
  8
LEVEL001
 62
     3
370
    20
100
AcDbText
 10
352.0
 20
131.0
 30
0.0
 40
3.0
  1
グランドカバー
 72
     5
 11
373.0
 21
131.0
 31
0.0
100
AcDbText
  0
TEXT
  5
DC
330
18
100
AcDbEntity
  8
LEVEL001
 62
     3
370
    20
100
AcDbText
 10
352.0
 20
126.0
 30
0.0
 40
3.0
  1
クリート
 72
     5
 11
364.0
 21
126.0
 31
0.0
100
AcDbText
  0
TEXT
  5
DD
330
18
100
AcDbEntity
  8
LEVEL001
 62
     3
370
    20
100
AcDbText
 10
382.75
 20
121.0
 30
0.0
 40
3.0
  1
１
 41
0.5
 72
     5
 11
384.25
 21
121.0
 31
0.0
100
AcDbText
  0
TEXT
  5
DE
330
18
100
AcDbEntity
  8
LEVEL001
 62
     3
370
    20
100
AcDbText
 10
382.75
 20
126.0
 30
0.0
 40
3.0
  1
１
 41
0.5
 72
     5
 11
384.25
 21
126.0
 31
0.0
100
AcDbText
  0
TEXT
  5
DF
330
18
100
AcDbEntity
  8
LEVEL001
 62
     3
370
    20
100
AcDbText
 10
382.75
 20
131.0
 30
0.0
 40
3.0
  1
１
 41
0.5
 72
     5
 11
384.25
 21
131.0
 31
0.0
100
AcDbText
  0
TEXT
  5
E0
330
18
100
AcDbEntity
  8
LEVEL001
 62
     3
370
    20
100
AcDbText
 10
387.0
 20
131.0
 30
0.0
 40
3.0
  1
Ａ５０５２Ｐ
 41
0.66666666666667
 72
     5
 11
399.0
 21
131.0
 31
0.0
100
AcDbText
  0
TEXT
  5
E1
330
18
100
AcDbEntity
  8
LEVEL001
 62
     3
370
    20
100
AcDbText
 10
387.0
 20
126.0
 30
0.0
 40
3.0
  1
ＡＤＣ５
 41
0.66666666666667
 72
     5
 11
395.0
 21
126.0
 31
0.0
100
AcDbText
  0
TEXT
  5
E2
330
18
100
AcDbEntity
  8
LEVEL001
 62
     3
370
    20
100
AcDbText
 10
387.0
 20
121.0
 30
0.0
 40
3.0
  1
ジュラコン
 41
0.66666666666667
 72
     5
 11
397.0
 21
121.0
 31
0.0
100
AcDbText
  0
TEXT
  5
E3
330
18
100
AcDbEntity
  8
LEVEL001
 62
     3
370
    20
100
AcDbText
 10
352.0
 20
121.0
 30
0.0
 40
3.0
  1
滑車
 72
     5
 11
358.0
 21
121.0
 31
0.0
100
AcDbText
  0
LINE
  5
E4
330
18
100
AcDbEntity
  8
LEVEL001
  6
Continuous
 62
     3
370
    20
100
AcDbLine
 10
289.49701451906
 20
123.09522752805
 30
0.0
 11
289.49701451906
 21
108.89522752805
 31
0.0
  0
LINE
  5
E5
330
18
100
AcDbEntity
  8
LEVEL001
  6
Continuous
 62
     3
370
    20
100
AcDbLine
 10
313.49701451906
 20
108.49522752805
 30
0.0
 11
319.29701451906
 21
108.49522752805
 31
0.0
  0
ARC
  5
E6
330
18
100
AcDbEntity
  8
LEVEL001
  6
Continuous
 62
     3
370
    20
100
AcDbCircle
 10
319.29701451906
 20
100.29522752805
 30
0.0
 40
8.2
100
AcDbArc
 50
0.0
 51
90.0
  0
POINT
  5
E7
330
18
100
AcDbEntity
  8
LEVEL001
 62
     3
100
AcDbPoint
 10
327.49701451906
 20
108.49522752805
 30
0.0
  0
LINE
  5
E8
330
18
100
AcDbEntity
  8
LEVEL001
  6
Continuous
 62
     3
370
    20
100
AcDbLine
 10
327.49701451906
 20
100.29522752805
 30
0.0
 11
327.49701451906
 21
96.495227528045
 31
0.0
  0
LINE
  5
E9
330
18
100
AcDbEntity
  8
LEVEL001
  6
Continuous
 62
     3
370
    20
100
AcDbLine
 10
313.49701451906
 20
108.89522752805
 30
0.0
 11
319.29701451906
 21
108.89522752805
 31
0.0
  0
ARC
  5
EA
330
18
100
AcDbEntity
  8
LEVEL001
  6
Continuous
 62
     3
370
    20
100
AcDbCircle
 10
319.29701451906
 20
100.29522752805
 30
0.0
 40
8.6
100
AcDbArc
 50
0.0
 51
90.0
  0
POINT
  5
EB
330
18
100
AcDbEntity
  8
LEVEL001
 62
     3
100
AcDbPoint
 10
327.89701451906
 20
108.89522752805
 30
0.0
  0
LINE
  5
EC
330
18
100
AcDbEntity
  8
LEVEL001
  6
Continuous
 62
     3
370
    20
100
AcDbLine
 10
327.89701451906
 20
100.29522752805
 30
0.0
 11
327.89701451906
 21
96.495227528045
 31
0.0
  0
LINE
  5
ED
330
18
100
AcDbEntity
  8
LEVEL001
  6
Continuous
 62
     3
370
    20
100
AcDbLine
 10
327.89701451906
 20
96.495227528045
 30
0.0
 11
313.49701451906
 21
96.495227528045
 31
0.0
  0
LINE
  5
EE
330
18
100
AcDbEntity
  8
LEVEL001
  6
Continuous
 62
     1
370
    15
100
AcDbLine
 10
327.89701451906
 20
94.495227528045
 30
0.0
 11
327.89701451906
 21
67.681284328972
 31
0.0
  0
LINE
  5
EF
330
18
100
AcDbEntity
  8
LEVEL001
  6
Continuous
 62
     1
370
    15
100
AcDbLine
 10
275.09701451906
 20
94.495227528045
 30
0.0
 11
275.09701451906
 21
67.681284328972
 31
0.0
  0
LINE
  5
F0
330
18
100
AcDbEntity
  8
LEVEL001
  6
Continuous
 62
     1
370
    15
100
AcDbLine
 10
327.89701451906
 20
69.681284328972
 30
0.0
 11
301.49701451906
 21
69.681284328972
 31
0.0
  0
LINE
  5
F1
330
18
100
AcDbEntity
  8
LEVEL001
  6
Continuous
 62
     1
370
    15
100
AcDbLine
 10
275.09701451906
 20
69.681284328972
 30
0.0
 11
301.49701451906
 21
69.681284328972
 31
0.0
  0
LINE
  5
F2
330
18
100
AcDbEntity
  8
LEVEL001
  6
Continuous
 62
     1
370
    15
100
AcDbLine
 10
327.89701451906
 20
69.681284328972
 30
0.0
 11
324.89701451906
 21
70.485131906266
 31
0.0
  0
LINE
  5
F3
330
18
100
AcDbEntity
  8
LEVEL001
  6
Continuous
 62
     1
370
    15
100
AcDbLine
 10
327.89701451906
 20
69.681284328972
 30
0.0
 11
324.89701451906
 21
68.877436751679
 31
0.0
  0
LINE
  5
F4
330
18
100
AcDbEntity
  8
LEVEL001
  6
Continuous
 62
     1
370
    15
100
AcDbLine
 10
275.09701451906
 20
69.681284328972
 30
0.0
 11
278.09701451906
 21
68.877436751679
 31
0.0
  0
LINE
  5
F5
330
18
100
AcDbEntity
  8
LEVEL001
  6
Continuous
 62
     1
370
    15
100
AcDbLine
 10
275.09701451906
 20
69.681284328972
 30
0.0
 11
278.09701451906
 21
70.485131906266
 31
0.0
  0
MTEXT
  5
F6
330
18
100
AcDbEntity
  8
LEVEL001
 62
     3
370
    20
100
AcDbMText
 10
301.49701451906
 20
71.395570043258
 30
0.0
 40
4.0
 41
0.0
 71
     8
 72
     1
  1
\A1;(%%c264)
 73
     1
 44
1.0
  0
LINE
  5
F7
330
18
100
AcDbEntity
  8
LEVEL001
  6
Continuous
 62
     3
370
    20
100
AcDbLine
 10
270.03701451906
 20
96.495227528045
 30
0.0
 11
275.03701451906
 21
87.834973490201
 31
0.0
  0
LINE
  5
F8
330
18
100
AcDbEntity
  8
LEVEL001
  6
Continuous
 62
     3
370
    20
100
AcDbLine
 10
271.59350936942
 20
87.834973490201
 30
0.0
 11
273.31526194424
 21
90.817136427849
 31
0.0
  0
LINE
  5
F9
330
18
100
AcDbEntity
  8
LEVEL001
  6
Continuous
 62
     3
370
    20
100
AcDbLine
 10
265.03701451906
 20
87.834973490201
 30
0.0
 11
270.03701451906
 21
96.495227528045
 31
0.0
  0
LINE
  5
FA
330
18
100
AcDbEntity
  8
LEVEL001
  6
Continuous
 62
     3
370
    20
100
AcDbLine
 10
263.33701451906
 20
96.495227528045
 30
0.0
 11
266.68701451906
 21
90.692857322689
 31
0.0
  0
LINE
  5
FB
330
18
100
AcDbEntity
  8
LEVEL001
  6
Continuous
 62
     3
370
    20
100
AcDbLine
 10
266.63701451906
 20
96.495227528045
 30
0.0
 11
268.33701451906
 21
93.550741155178
 31
0.0
  0
LINE
  5
FC
330
18
100
AcDbEntity
  8
LEVEL001
  6
Continuous
 62
     3
370
    20
100
AcDbLine
 10
268.29350936942
 20
87.834973490201
 30
0.0
 11
271.66526194424
 21
93.675020260338
 31
0.0
  0
LINE
  5
FD
330
18
100
AcDbEntity
  8
LEVEL001
  6
Continuous
 62
     3
370
    20
100
AcDbLine
 10
273.33701451906
 20
96.495227528045
 30
0.0
 11
275.03701451906
 21
93.550741155178
 31
0.0
  0
ARC
  5
FE
330
18
100
AcDbEntity
  8
LEVEL001
  6
Continuous
 62
     3
370
    20
100
AcDbCircle
 10
283.69701451906
 20
100.29522752805
 30
0.0
 40
8.6
100
AcDbArc
 50
89.999999999999
 51
180.0
  0
LINE
  5
FF
330
18
100
AcDbEntity
  8
LEVEL001
  6
Continuous
 62
     3
370
    20
100
AcDbLine
 10
275.09701451906
 20
100.29522752805
 30
0.0
 11
275.09701451906
 21
96.495227528045
 31
0.0
  0
LINE
  5
100
330
18
100
AcDbEntity
  8
LEVEL001
  6
Continuous
 62
     3
370
    20
100
AcDbLine
 10
301.49701451906
 20
108.89522752805
 30
0.0
 11
283.69701451906
 21
108.89522752805
 31
0.0
  0
LINE
  5
101
330
18
100
AcDbEntity
  8
LEVEL001
  6
Continuous
 62
     3
370
    20
100
AcDbLine
 10
275.09701451906
 20
96.495227528045
 30
0.0
 11
301.49701451906
 21
96.495227528045
 31
0.0
  0
LINE
  5
102
330
18
100
AcDbEntity
  8
LEVEL001
  6
Continuous
 62
     3
370
    20
100
AcDbLine
 10
275.09701451906
 20
96.495227528045
 30
0.0
 11
263.33701451906
 21
96.495227528045
 31
0.0
  0
LINE
  5
103
330
18
100
AcDbEntity
  8
LEVEL001
  6
Continuous
 62
     1
370
    15
100
AcDbLine
 10
272.03701451906
 20
96.495227528045
 30
0.0
 11
258.246879605
 21
96.495227528045
 31
0.0
  0
LINE
  5
104
330
18
100
AcDbEntity
  8
LEVEL001
  6
Continuous
 62
     1
370
    15
100
AcDbLine
 10
280.69701451906
 20
108.89522752805
 30
0.0
 11
258.246879605
 21
108.89522752805
 31
0.0
  0
LINE
  5
105
330
18
100
AcDbEntity
  8
LEVEL001
  6
Continuous
 62
     1
370
    15
100
AcDbLine
 10
260.246879605
 20
96.495227528045
 30
0.0
 11
260.246879605
 21
102.69522752805
 31
0.0
  0
LINE
  5
106
330
18
100
AcDbEntity
  8
LEVEL001
  6
Continuous
 62
     1
370
    15
100
AcDbLine
 10
260.246879605
 20
108.89522752805
 30
0.0
 11
260.246879605
 21
102.69522752805
 31
0.0
  0
LINE
  5
107
330
18
100
AcDbEntity
  8
LEVEL001
  6
Continuous
 62
     1
370
    15
100
AcDbLine
 10
260.246879605
 20
96.495227528045
 30
0.0
 11
261.05072718229
 21
99.495227528045
 31
0.0
  0
LINE
  5
108
330
18
100
AcDbEntity
  8
LEVEL001
  6
Continuous
 62
     1
370
    15
100
AcDbLine
 10
260.246879605
 20
96.495227528045
 30
0.0
 11
259.44303202771
 21
99.495227528045
 31
0.0
  0
LINE
  5
109
330
18
100
AcDbEntity
  8
LEVEL001
  6
Continuous
 62
     1
370
    15
100
AcDbLine
 10
260.246879605
 20
108.89522752805
 30
0.0
 11
259.44303202771
 21
105.89522752805
 31
0.0
  0
LINE
  5
10A
330
18
100
AcDbEntity
  8
LEVEL001
  6
Continuous
 62
     1
370
    15
100
AcDbLine
 10
260.246879605
 20
108.89522752805
 30
0.0
 11
261.05072718229
 21
105.89522752805
 31
0.0
  0
MTEXT
  5
10B
330
18
100
AcDbEntity
  8
LEVEL001
 62
     3
370
    20
100
AcDbMText
 10
258.53259389071
 20
102.69522752805
 30
0.0
 40
4.0
 41
0.0
 71
     8
 72
     1
  1
\A1;(62)
 11
0.0
 21
1.0
 31
0.0
 73
     1
 44
1.0
  0
TEXT
  5
10C
330
18
100
AcDbEntity
  8
LEVEL001
 62
     3
370
    20
100
AcDbText
 10
356.6
 20
41.0
 30
0.0
 40
4.0
  1
７ＦＰ－Ｕｚｘ
 72
     5
 11
384.6
 21
41.0
 31
0.0
100
AcDbText
  0
TEXT
  5
10D
330
18
100
AcDbEntity
  8
LEVEL001
 62
     3
370
    20
100
AcDbText
 10
354.0
 20
12.0
 30
0.0
 40
6.0
  1
株式会社ＳＤＡＴ
 72
     5
 11
402.0
 21
12.0
 31
0.0
100
AcDbText
  0
TEXT
  5
10E
330
18
100
AcDbEntity
  8
LEVEL001
 62
     3
370
    20
100
AcDbText
 10
387.0
 20
111.0
 30
0.0
 40
3.0
  1
Ａ６０６３－Ｔ６
 41
0.66666666666667
 72
     5
 11
403.0
 21
111.0
 31
0.0
100
AcDbText
  0
TEXT
  5
10F
330
18
100
AcDbEntity
  8
LEVEL001
 62
     3
370
    20
100
AcDbText
 10
387.0
 20
106.0
 30
0.0
 40
3.0
  1
Ａ６０６３－Ｔ６
 41
0.66666666666667
 72
     5
 11
403.0
 21
106.0
 31
0.0
100
AcDbText
  0
LINE
  5
110
330
18
100
AcDbEntity
  8
LEVEL001
  6
Continuous
 62
     3
370
    20
100
AcDbLine
 10
170.11733205963
 20
33.961607901025
 30
0.0
 11
212.11733205963
 21
33.961607901025
 31
0.0
  0
LINE
  5
111
330
18
100
AcDbEntity
  8
LEVEL001
  6
DASHDOT
 62
     1
370
    15
100
AcDbLine
 10
190.73796814413
 20
115.97364147519
 30
0.0
 11
190.73796814413
 21
47.443725102628
 31
0.0
  0
LINE
  5
112
330
18
100
AcDbEntity
  8
LEVEL001
  6
Continuous
 62
     3
370
    20
100
AcDbLine
 10
202.73796814413
 20
111.99530974334
 30
0.0
 11
202.73796814413
 21
51.99530974334
 31
0.0
  0
LINE
  5
113
330
18
100
AcDbEntity
  8
LEVEL001
  6
Continuous
 62
     3
370
    20
100
AcDbLine
 10
178.73796814413
 20
111.99530974334
 30
0.0
 11
178.73796814413
 21
51.99530974334
 31
0.0
  0
LINE
  5
114
330
18
100
AcDbEntity
  8
LEVEL001
  6
DASHDOT
 62
     1
370
    15
100
AcDbLine
 10
167.65752454931
 20
81.99530974334
 30
0.0
 11
204.65319186242
 21
81.99530974334
 31
0.0
  0
ARC
  5
115
330
18
100
AcDbEntity
  8
LEVEL001
  6
Continuous
 62
     3
370
    20
100
AcDbCircle
 10
196.73796814413
 20
101.60300489793
 30
0.0
 40
12.0
100
AcDbArc
 50
59.99999999999801
 51
120.0
  0
ARC
  5
116
330
18
100
AcDbEntity
  8
LEVEL001
  6
Continuous
 62
     3
370
    20
100
AcDbCircle
 10
184.73796814413
 20
122.38761458875
 30
0.0
 40
12.0
100
AcDbArc
 50
240.0
 51
300.0
  0
ARC
  5
117
330
18
100
AcDbEntity
  8
LEVEL001
  6
Continuous
 62
     3
370
    20
100
AcDbCircle
 10
184.73796814413
 20
101.60300489793
 30
0.0
 40
12.0
100
AcDbArc
 50
60.000000000002
 51
120.0
  0
ARC
  5
118
330
18
100
AcDbEntity
  8
LEVEL001
  6
Continuous
 62
     3
370
    20
100
AcDbCircle
 10
184.73796814413
 20
101.60300489793
 30
0.0
 40
11.4
100
AcDbArc
 50
61.881957885558
 51
118.11804211444
  0
ARC
  5
119
330
18
100
AcDbEntity
  8
LEVEL001
  6
Continuous
 62
     3
370
    20
100
AcDbCircle
 10
184.73796814413
 20
62.387614588753
 30
0.0
 40
12.0
100
AcDbArc
 50
240.0
 51
300.0
  0
ARC
  5
11A
330
18
100
AcDbEntity
  8
LEVEL001
  6
Continuous
 62
     3
370
    20
100
AcDbCircle
 10
196.73796814413
 20
41.603004897926
 30
0.0
 40
12.0
100
AcDbArc
 50
59.99999999999801
 51
120.0
  0
ARC
  5
11B
330
18
100
AcDbEntity
  8
LEVEL001
  6
Continuous
 62
     3
370
    20
100
AcDbCircle
 10
196.73796814413
 20
62.387614588753
 30
0.0
 40
12.0
100
AcDbArc
 50
240.0
 51
300.0
  0
ARC
  5
11C
330
18
100
AcDbEntity
  8
LEVEL001
  6
Continuous
 62
     3
370
    20
100
AcDbCircle
 10
196.73796814413
 20
62.387614588753
 30
0.0
 40
11.4
100
AcDbArc
 50
241.88195788555
 51
298.1180421144401
  0
POLYLINE
  5
11D
330
18
100
AcDbEntity
  8
LEVEL001
  6
Continuous
 62
     1
370
    15
100
AcDb2dPolyline
 66
     1
 10
0.0
 20
0.0
 30
0.0
  0
VERTEX
  5
11E
330
11D
100
AcDbEntity
  8
LEVEL001
  6
Continuous
 62
     1
100
AcDbVertex
100
AcDb2dVertex
 10
177.43724004454
 20
97.79530974334
 30
0.0
  0
VERTEX
  5
11F
330
11D
100
AcDbEntity
  8
LEVEL001
  6
Continuous
 62
     1
100
AcDbVertex
100
AcDb2dVertex
 10
164.01366031009
 20
107.47933579147
 30
0.0
  0
VERTEX
  5
120
330
11D
100
AcDbEntity
  8
LEVEL001
  6
Continuous
 62
     1
100
AcDbVertex
100
AcDb2dVertex
 10
136.01366031009
 20
107.47933579147
 30
0.0
  0
SEQEND
  5
121
330
11D
100
AcDbEntity
  8
LEVEL001
  6
Continuous
 62
     1
  0
LINE
  5
122
330
18
100
AcDbEntity
  8
LEVEL001
  6
Continuous
 62
     1
370
    15
100
AcDbLine
 10
177.43724004454
 20
97.79530974334
 30
0.0
 11
175.474576178
 21
100.20240788727
 31
0.0
  0
LINE
  5
123
330
18
100
AcDbEntity
  8
LEVEL001
  6
Continuous
 62
     1
370
    15
100
AcDbLine
 10
177.43724004454
 20
97.79530974334
 30
0.0
 11
174.53397420506
 21
98.898585952119
 31
0.0
  0
MTEXT
  5
124
102
{ACAD_REACTORS
330
123
102
}
330
18
100
AcDbEntity
  8
LEVEL001
 62
     3
370
    20
100
AcDbMText
 10
136.01366031009
 20
109.19362150575
 30
0.0
 40
4.0
 41
0.0
 71
     7
 72
     1
  1
\A1;２－Ｍ６ナベビス
 73
     1
 44
1.0
  0
LINE
  5
125
330
18
100
AcDbEntity
  8
LEVEL001
  6
Continuous
 62
     1
370
    15
100
AcDbLine
 10
169.73796814413
 20
91.99530974334
 30
0.0
 11
169.73796814413
 21
109.65070845058
 31
0.0
  0
LINE
  5
126
330
18
100
AcDbEntity
  8
LEVEL001
  6
Continuous
 62
     1
370
    15
100
AcDbLine
 10
169.73796814413
 20
107.65070845058
 30
0.0
 11
174.23796814413
 21
107.65070845058
 31
0.0
  0
LINE
  5
127
330
18
100
AcDbEntity
  8
LEVEL001
  6
Continuous
 62
     1
370
    15
100
AcDbLine
 10
178.73796814413
 20
107.65070845058
 30
0.0
 11
174.23796814413
 21
107.65070845058
 31
0.0
  0
LINE
  5
128
330
18
100
AcDbEntity
  8
LEVEL001
  6
Continuous
 62
     1
370
    15
100
AcDbLine
 10
169.73796814413
 20
107.65070845058
 30
0.0
 11
172.73796814413
 21
106.84686087329
 31
0.0
  0
LINE
  5
129
330
18
100
AcDbEntity
  8
LEVEL001
  6
Continuous
 62
     1
370
    15
100
AcDbLine
 10
169.73796814413
 20
107.65070845058
 30
0.0
 11
172.73796814413
 21
108.45455602787
 31
0.0
  0
LINE
  5
12A
330
18
100
AcDbEntity
  8
LEVEL001
  6
Continuous
 62
     1
370
    15
100
AcDbLine
 10
178.73796814413
 20
107.65070845058
 30
0.0
 11
175.73796814413
 21
108.45455602787
 31
0.0
  0
LINE
  5
12B
330
18
100
AcDbEntity
  8
LEVEL001
  6
Continuous
 62
     1
370
    15
100
AcDbLine
 10
178.73796814413
 20
107.65070845058
 30
0.0
 11
175.73796814413
 21
106.84686087329
 31
0.0
  0
MTEXT
  5
12C
330
18
100
AcDbEntity
  8
LEVEL001
 62
     3
370
    20
100
AcDbMText
 10
174.23796814413
 20
109.36499416486
 30
0.0
 40
4.0
 41
0.0
 71
     8
 72
     1
  1
\A1;(45)
 73
     1
 44
1.0
  0
TEXT
  5
12D
330
18
100
AcDbEntity
  8
LEVEL001
 62
     3
370
    20
100
AcDbText
 10
184.86733205963
 20
28.961607901025
 30
0.0
 40
5.0
  1
Ｓ＝１：５
 41
0.5
 72
     5
 11
197.36733205963
 21
28.961607901025
 31
0.0
100
AcDbText
  0
TEXT
  5
12E
330
18
100
AcDbEntity
  8
LEVEL001
 62
     3
370
    20
100
AcDbText
 10
171.11733205963
 20
34.961607901025
 30
0.0
 40
5.0
  1
ロープ掛け部詳細
 72
     5
 11
211.11733205963
 21
34.961607901025
 31
0.0
100
AcDbText
  0
LINE
  5
12F
330
18
100
AcDbEntity
  8
LEVEL001
  6
Continuous
 62
     3
370
    20
100
AcDbLine
 10
174.08796814413
 20
82.99530974334
 30
0.0
 11
175.38796814413
 21
82.99530974334
 31
0.0
  0
LINE
  5
130
330
18
100
AcDbEntity
  8
LEVEL001
  6
Continuous
 62
     3
370
    20
100
AcDbLine
 10
173.7609109013
 20
88.446263790484
 30
0.0
 11
174.08796814413
 21
82.99530974334
 31
0.0
  0
LINE
  5
131
330
18
100
AcDbEntity
  8
LEVEL001
  6
Continuous
 62
     3
370
    20
100
AcDbLine
 10
177.63796814413
 20
88.39530974334
 30
0.0
 11
177.63796814413
 21
81.99530974334
 31
0.0
  0
LINE
  5
132
330
18
100
AcDbEntity
  8
LEVEL001
  6
Continuous
 62
     3
370
    20
100
AcDbLine
 10
177.63796814413
 20
75.59530974334
 30
0.0
 11
177.63796814413
 21
81.99530974334
 31
0.0
  0
LINE
  5
133
330
18
100
AcDbEntity
  8
LEVEL001
  6
Continuous
 62
     3
370
    20
100
AcDbLine
 10
178.73796814413
 20
93.99530974334
 30
0.0
 11
177.63796814413
 21
88.39530974334
 31
0.0
  0
LINE
  5
134
330
18
100
AcDbEntity
  8
LEVEL001
  6
Continuous
 62
     3
370
    20
100
AcDbLine
 10
178.73796814413
 20
69.99530974334
 30
0.0
 11
177.63796814413
 21
75.59530974334
 31
0.0
  0
ARC
  5
135
330
18
100
AcDbEntity
  8
LEVEL001
  6
Continuous
 62
     3
370
    20
100
AcDbCircle
 10
176.76843643408
 20
92.440608563996
 30
0.0
 40
5.0
100
AcDbArc
 50
180.0
 51
233.02223081455
  0
LINE
  5
136
330
18
100
AcDbEntity
  8
LEVEL001
  6
HIDDEN
 62
     1
370
    15
100
AcDbLine
 10
178.23724004454
 20
65.56530974334
 30
0.0
 11
178.73796814413
 21
65.56530974334
 31
0.0
  0
LINE
  5
137
330
18
100
AcDbEntity
  8
LEVEL001
  6
HIDDEN
 62
     1
370
    15
100
AcDbLine
 10
178.23724004454
 20
65.56530974334
 30
0.0
 11
178.23724004454
 21
65.09530974334
 31
0.0
  0
LINE
  5
138
330
18
100
AcDbEntity
  8
LEVEL001
  6
HIDDEN
 62
     1
370
    15
100
AcDbLine
 10
178.23724004454
 20
67.29530974334
 30
0.0
 11
178.23724004454
 21
66.82530974334
 31
0.0
  0
LINE
  5
139
330
18
100
AcDbEntity
  8
LEVEL001
  6
HIDDEN
 62
     1
370
    15
100
AcDbLine
 10
178.23724004454
 20
66.82530974334
 30
0.0
 11
178.73796814413
 21
66.82530974334
 31
0.0
  0
LINE
  5
13A
330
18
100
AcDbEntity
  8
LEVEL001
  6
Continuous
 62
     3
370
    20
100
AcDbLine
 10
171.74030726741
 20
95.979176573483
 30
0.0
 11
171.76843643408
 21
92.440608563996
 31
0.0
  0
LINE
  5
13B
330
18
100
AcDbEntity
  8
LEVEL001
  6
DOT
 62
     1
370
    15
100
AcDbLine
 10
178.03724004454
 20
65.14530974334
 30
0.0
 11
178.23724004454
 21
65.14530974334
 31
0.0
  0
LINE
  5
13C
330
18
100
AcDbEntity
  8
LEVEL001
  6
DOT
 62
     1
370
    15
100
AcDbLine
 10
178.23724004454
 20
67.24530974334
 30
0.0
 11
178.23724004454
 21
65.14530974334
 31
0.0
  0
LINE
  5
13D
330
18
100
AcDbEntity
  8
LEVEL001
  6
DOT
 62
     1
370
    15
100
AcDbLine
 10
178.03724004454
 20
67.24530974334
 30
0.0
 11
178.23724004454
 21
67.24530974334
 31
0.0
  0
LINE
  5
13E
330
18
100
AcDbEntity
  8
LEVEL001
  6
Continuous
 62
     3
370
    20
100
AcDbLine
 10
177.43724004454
 20
65.74530974334
 30
0.0
 11
177.43724004454
 21
66.64530974334
 31
0.0
  0
LINE
  5
13F
330
18
100
AcDbEntity
  8
LEVEL001
  6
Continuous
 62
     3
370
    20
100
AcDbLine
 10
178.73796814413
 20
63.89530974334
 30
0.0
 11
178.73796814413
 21
69.99530974334
 31
0.0
  0
ARC
  5
140
330
18
100
AcDbEntity
  8
LEVEL001
  6
Continuous
 62
     3
370
    20
100
AcDbCircle
 10
183.64945398732
 20
69.427546869699
 30
0.0
 40
12.0
100
AcDbArc
 50
142.92793628941
 51
187.12650048794
  0
LINE
  5
141
330
18
100
AcDbEntity
  8
LEVEL001
  6
HIDDEN
 62
     1
370
    15
100
AcDbLine
 10
178.23724004454
 20
98.42530974334
 30
0.0
 11
178.73796814413
 21
98.42530974334
 31
0.0
  0
LINE
  5
142
330
18
100
AcDbEntity
  8
LEVEL001
  6
HIDDEN
 62
     1
370
    15
100
AcDbLine
 10
178.23724004454
 20
98.42530974334
 30
0.0
 11
178.23724004454
 21
98.89530974334
 31
0.0
  0
LINE
  5
143
330
18
100
AcDbEntity
  8
LEVEL001
  6
HIDDEN
 62
     1
370
    15
100
AcDbLine
 10
178.23724004454
 20
96.69530974334
 30
0.0
 11
178.23724004454
 21
97.16530974334
 31
0.0
  0
LINE
  5
144
330
18
100
AcDbEntity
  8
LEVEL001
  6
HIDDEN
 62
     1
370
    15
100
AcDbLine
 10
178.23724004454
 20
97.16530974334
 30
0.0
 11
178.73796814413
 21
97.16530974334
 31
0.0
  0
LINE
  5
145
330
18
100
AcDbEntity
  8
LEVEL001
  6
DOT
 62
     1
370
    15
100
AcDbLine
 10
178.03724004454
 20
98.84530974334
 30
0.0
 11
178.23724004454
 21
98.84530974334
 31
0.0
  0
LINE
  5
146
330
18
100
AcDbEntity
  8
LEVEL001
  6
DOT
 62
     1
370
    15
100
AcDbLine
 10
178.23724004454
 20
96.74530974334
 30
0.0
 11
178.23724004454
 21
98.84530974334
 31
0.0
  0
LINE
  5
147
330
18
100
AcDbEntity
  8
LEVEL001
  6
DOT
 62
     1
370
    15
100
AcDbLine
 10
178.03724004454
 20
96.74530974334
 30
0.0
 11
178.23724004454
 21
96.74530974334
 31
0.0
  0
LINE
  5
148
330
18
100
AcDbEntity
  8
LEVEL001
  6
Continuous
 62
     3
370
    20
100
AcDbLine
 10
177.43724004454
 20
98.24530974334
 30
0.0
 11
177.43724004454
 21
97.34530974334
 31
0.0
  0
LINE
  5
149
330
18
100
AcDbEntity
  8
LEVEL001
  6
Continuous
 62
     3
370
    20
100
AcDbLine
 10
178.73796814413
 20
100.09530974334
 30
0.0
 11
178.73796814413
 21
93.99530974334
 31
0.0
  0
LWPOLYLINE
  5
14A
330
18
100
AcDbEntity
  8
LEVEL001
  6
Continuous
 62
     3
370
    20
100
AcDbPolyline
 90
       65
 70
     0
 43
0.0
 10
170.89005116966
 20
95.025635833873
 10
170.86994465868
 20
94.570204494169
 10
170.84990672487
 20
94.115150471148
 10
170.83000594539
 20
93.660851081493
 10
170.81031089742
 20
93.207683641888
 10
170.79089015812
 20
92.756025469016
 10
170.77181230467
 20
92.306253879561
 10
170.75314591422
 20
91.858746190207
 10
170.73495956396
 20
91.413879717637
 10
170.71732183105
 20
90.972031778534
 10
170.70030129266
 20
90.533579689583
 10
170.68396652596
 20
90.098900767467
 10
170.66838610812
 20
89.66837232887
 10
170.6536286163
 20
89.242371690475
 10
170.63976262768
 20
88.821276168966
 10
170.62685671943
 20
88.405463081026
 10
170.61497946872
 20
87.99530974334
 10
170.60417989107
 20
87.591067700363
 10
170.59442875547
 20
87.192485407639
 10
170.58567726926
 20
86.799185548486
 10
170.57787663978
 20
86.410790806219
 10
170.57097807438
 20
86.026923864155
 10
170.56493278041
 20
85.64720740561
 10
170.55969196519
 20
85.271264113901
 10
170.55520683608
 20
84.898716672344
 10
170.55142860042
 20
84.529187764256
 10
170.54830846555
 20
84.162300072953
 10
170.54579763882
 20
83.797676281752
 10
170.54384732756
 20
83.434939073968
 10
170.54240873912
 20
83.073711132919
 10
170.54143308085
 20
82.71361514192
 10
170.54087156008
 20
82.354273784288
 10
170.54067538416
 20
81.99530974334
 10
170.54081201406
 20
81.636345702392
 10
170.54131392528
 20
81.277004344759
 10
170.54222984697
 20
80.91690835376
 10
170.54360850825
 20
80.555680412709
 10
170.54549863825
 20
80.192943204924
 10
170.54794896612
 20
79.828319413721
 10
170.55100822098
 20
79.461431722417
 10
170.55472513198
 20
79.091902814328
 10
170.55914842823
 20
78.719355372771
 10
170.56432683889
 20
78.343412081062
 10
170.57030909308
 20
77.963695622517
 10
170.57714391994
 20
77.579828680453
 10
170.58488004859
 20
77.191433938187
 10
170.59356620818
 20
76.798134079035
 10
170.60325112785
 20
76.399551786314
 10
170.61398353671
 20
75.99530974334
 10
170.62579262345
 20
75.585156405657
 10
170.63862941488
 20
75.169343317722
 10
170.65242539736
 20
74.748247796217
 10
170.66711205724
 20
74.322247157827
 10
170.68262088087
 20
73.891718719234
 10
170.69888335461
 20
73.457039797123
 10
170.71583096481
 20
73.018587708177
 10
170.73339519783
 20
72.576739769078
 10
170.75150754002
 20
72.131873296512
 10
170.77009947773
 20
71.684365607161
 10
170.78910249731
 20
71.234594017709
 10
170.80844808513
 20
70.78293584484
 10
170.82806772753
 20
70.329768405236
 10
170.84789291087
 20
69.875469015582
 10
170.8678551215
 20
69.420414992561
 10
170.88788584578
 20
68.964983652856
  0
LWPOLYLINE
  5
14B
330
18
100
AcDbEntity
  8
LEVEL001
  6
Continuous
 62
     3
370
    20
100
AcDbPolyline
 90
       65
 70
     0
 43
0.0
 10
171.68734392963
 20
95.025635833873
 10
171.66727539761
 20
94.569475014894
 10
171.64727454913
 20
94.113708676816
 10
171.62740906775
 20
93.658731300541
 10
171.607746637
 20
93.20493736697
 10
171.58835494043
 20
92.752721357005
 10
171.56930166159
 20
92.302477751549
 10
171.55065448404
 20
91.854601031502
 10
171.5324810913
 20
91.409485677768
 10
171.51484916694
 20
90.967526171247
 10
171.49782639449
 20
90.529116992841
 10
171.48148045751
 20
90.094652623454
 10
171.46587903954
 20
89.664527543985
 10
171.45108982412
 20
89.239136235337
 10
171.43718049481
 20
88.818873178413
 10
171.42421873515
 20
88.404132854113
 10
171.41227222869
 20
87.99530974334
 10
171.40138999095
 20
87.59265539055
 10
171.39154636542
 20
87.195849594414
 10
171.38269702754
 20
86.804429217157
 10
171.37479765278
 20
86.417931121005
 10
171.36780391658
 20
86.035892168184
 10
171.36167149441
 20
85.657849220917
 10
171.35635606171
 20
85.283339141431
 10
171.35181329395
 20
84.911898791951
 10
171.34799886657
 20
84.543065034702
 10
171.34486845504
 20
84.176374731908
 10
171.34237773482
 20
83.811364745797
 10
171.34048238134
 20
83.447571938591
 10
171.33913807008
 20
83.084533172518
 10
171.33830047649
 20
82.721785309801
 10
171.33792527602
 20
82.358865212667
 10
171.33796814413
 20
81.99530974334
 10
171.33839743541
 20
81.630724420919
 10
171.33923222103
 20
81.264989391993
 10
171.3405042513
 20
80.898053460025
 10
171.34224527651
 20
80.529865428479
 10
171.34448704699
 20
80.160374100818
 10
171.34726131302
 20
79.789528280504
 10
171.35059982493
 20
79.417276771
 10
171.35453433301
 20
79.043568375771
 10
171.35909658757
 20
78.668351898277
 10
171.36431833892
 20
78.291576141983
 10
171.37023133736
 20
77.913189910352
 10
171.37686733321
 20
77.533142006846
 10
171.38425807675
 20
77.151381234929
 10
171.39243531831
 20
76.767856398064
 10
171.40143080818
 20
76.382516299713
 10
171.41127629668
 20
75.99530974334
 10
171.42198905751
 20
75.606214040732
 10
171.43352845795
 20
75.215320536975
 10
171.44583938871
 20
74.822749085479
 10
171.45886674048
 20
74.428619539653
 10
171.47255540394
 20
74.033051752908
 10
171.48685026979
 20
73.636165578653
 10
171.50169622872
 20
73.238080870299
 10
171.51703817142
 20
72.838917481255
 10
171.53282098859
 20
72.438795264932
 10
171.54898957092
 20
72.037834074739
 10
171.56548880909
 20
71.636153764087
 10
171.5822635938
 20
71.233874186385
 10
171.59925881575
 20
70.831115195043
 10
171.61641936562
 20
70.427996643471
 10
171.63369013411
 20
70.024638385079
 10
171.6510160119
 20
69.621160273277
  0
POINT
  5
14C
330
18
100
AcDbEntity
  8
LEVEL001
 62
     2
100
AcDbPoint
 10
178.73796814413
 20
81.99530974334
 30
0.0
  0
ARC
  5
14D
330
18
100
AcDbEntity
  8
LEVEL001
  6
Continuous
 62
     3
370
    20
100
AcDbCircle
 10
171.34301450741
 20
67.964983652823
 30
0.0
 40
0.4
100
AcDbArc
 50
189.81802439684
 51
356.24988759824
  0
ARC
  5
14E
330
18
100
AcDbEntity
  8
LEVEL001
  6
Continuous
 62
     3
370
    20
100
AcDbCircle
 10
171.34301450744
 20
96.025635833866
 30
0.0
 40
0.4
100
AcDbArc
 50
353.3301469404001
 51
170.18197560323
  0
LWPOLYLINE
  5
14F
330
18
100
AcDbEntity
  8
LEVEL001
  6
Continuous
 62
     3
370
    20
100
AcDbPolyline
 90
      161
 70
     0
 43
0.0
 10
170.94887278569
 20
96.093843628006
 10
170.9300445708
 20
95.977722612724
 10
170.91117950623
 20
95.861247777381
 10
170.8922407423
 20
95.744065301919
 10
170.87319142933
 20
95.625821366278
 10
170.85399471764
 20
95.506162150401
 10
170.83461375757
 20
95.384733834228
 10
170.81501169943
 20
95.261182597702
 10
170.79515169354
 20
95.135154620762
 10
170.77499689022
 20
95.006296083352
 10
170.75451043981
 20
94.874253165412
 10
170.73365549262
 20
94.738672046883
 10
170.71239519898
 20
94.599198907708
 10
170.6906927092
 20
94.455479927827
 10
170.66851117361
 20
94.307161287182
 10
170.64581374254
 20
94.153889165713
 10
170.62256356631
 20
93.995309743364
 10
170.59874429102
 20
93.831202935633
 10
170.5744215459
 20
93.661883600252
 10
170.54968145599
 20
93.487800330509
 10
170.52461014629
 20
93.309401719694
 10
170.49929374181
 20
93.127136361095
 10
170.47381836759
 20
92.941452848001
 10
170.44827014863
 20
92.752799773701
 10
170.42273520994
 20
92.561625731482
 10
170.39729967656
 20
92.368379314635
 10
170.37204967349
 20
92.173509116447
 10
170.34707132576
 20
91.977463730208
 10
170.32245075837
 20
91.780691749205
 10
170.29827409634
 20
91.583641766729
 10
170.2746274647
 20
91.386762376066
 10
170.25159698846
 20
91.190502170507
 10
170.22926879263
 20
90.99530974334
 10
170.20770956575
 20
90.801538914623
 10
170.18690825038
 20
90.609164411494
 10
170.16683435259
 20
90.418066187863
 10
170.14745737846
 20
90.228124197637
 10
170.12874683408
 20
90.039218394726
 10
170.11067222553
 20
89.851228733039
 10
170.09320305887
 20
89.664035166483
 10
170.07630884018
 20
89.477517648967
 10
170.05995907555
 20
89.291556134401
 10
170.04412327106
 20
89.106030576692
 10
170.02877093277
 20
88.92082092975
 10
170.01387156677
 20
88.735807147483
 10
169.99939467914
 20
88.5508691838
 10
169.98530977596
 20
88.365886992609
 10
169.97158636329
 20
88.18074052782
 10
169.95819394723
 20
87.99530974334
 10
169.94510895891
 20
87.80949986594
 10
169.93233552971
 20
87.623317213836
 10
169.9198847161
 20
87.436793378104
 10
169.90776757452
 20
87.249959949821
 10
169.89599516141
 20
87.062848520064
 10
169.88457853324
 20
86.875490679909
 10
169.87352874644
 20
86.687918020432
 10
169.86285685748
 20
86.500162132711
 10
169.8525739228
 20
86.312254607822
 10
169.84269099884
 20
86.124227036842
 10
169.83321914207
 20
85.936111010848
 10
169.82416940893
 20
85.747938120915
 10
169.81555285587
 20
85.559739958122
 10
169.80738053934
 20
85.371548113544
 10
169.79966351579
 20
85.183394178257
 10
169.79241284167
 20
84.99530974334
 10
169.78563691731
 20
84.807320081653
 10
169.77933351851
 20
84.619425193195
 10
169.77349776497
 20
84.431618759752
 10
169.76812477637
 20
84.243894463108
 10
169.76320967239
 20
84.056245985048
 10
169.75874757272
 20
83.868667007356
 10
169.75473359705
 20
83.681151211818
 10
169.75116286507
 20
83.493692280218
 10
169.74803049645
 20
83.30628389434
 10
169.74533161089
 20
83.118919735969
 10
169.74306132807
 20
82.93159348689
 10
169.74121476768
 20
82.744298828888
 10
169.73978704941
 20
82.557029443748
 10
169.73877329293
 20
82.369779013253
 10
169.73816861794
 20
82.182541219189
 10
169.73796814413
 20
81.99530974334
 10
169.73816861794
 20
81.808078267491
 10
169.73877329293
 20
81.620840473427
 10
169.7397870494
 20
81.433590042932
 10
169.74121476767
 20
81.246320657792
 10
169.74306132806
 20
81.05902599979
 10
169.74533161088
 20
80.871699750711
 10
169.74803049644
 20
80.684335592341
 10
169.75116286505
 20
80.496927206463
 10
169.75473359704
 20
80.309468274863
 10
169.75874757271
 20
80.121952479325
 10
169.76320967238
 20
79.934373501634
 10
169.76812477636
 20
79.746725023574
 10
169.77349776496
 20
79.559000726929
 10
169.7793335185
 20
79.371194293486
 10
169.7856369173
 20
79.183299405028
 10
169.79241284167
 20
78.99530974334
 10
169.79966351579
 20
78.807225308422
 10
169.80738053934
 20
78.619071373135
 10
169.81555285587
 20
78.430879528556
 10
169.82416940893
 20
78.242681365762
 10
169.83321914207
 20
78.054508475829
 10
169.84269099885
 20
77.866392449834
 10
169.8525739228
 20
77.678364878853
 10
169.86285685748
 20
77.490457353964
 10
169.87352874645
 20
77.302701466243
 10
169.88457853324
 20
77.115128806767
 10
169.89599516141
 20
76.927770966612
 10
169.90776757451
 20
76.740659536855
 10
169.91988471609
 20
76.553826108572
 10
169.9323355297
 20
76.367302272841
 10
169.94510895889
 20
76.181119620738
 10
169.95819394721
 20
75.99530974334
 10
169.97158636326
 20
75.809878958862
 10
169.98530977592
 20
75.624732494074
 10
169.9993946791
 20
75.439750302884
 10
170.01387156673
 20
75.254812339202
 10
170.02877093272
 20
75.069798556936
 10
170.04412327101
 20
74.884588909995
 10
170.0599590755
 20
74.699063352287
 10
170.07630884013
 20
74.513101837721
 10
170.09320305881
 20
74.326584320206
 10
170.11067222547
 20
74.139390753649
 10
170.12874683404
 20
73.951401091961
 10
170.14745737842
 20
73.762495289049
 10
170.16683435255
 20
73.572553298823
 10
170.18690825034
 20
73.38145507519
 10
170.20770956573
 20
73.189080572059
 10
170.22926879262
 20
72.99530974334
 10
170.25159698846
 20
72.80011731617
 10
170.27462746471
 20
72.603857110609
 10
170.29827409636
 20
72.406977719945
 10
170.32245075839
 20
72.209927737467
 10
170.34707132579
 20
72.013155756464
 10
170.37204967353
 20
71.817110370224
 10
170.39729967661
 20
71.622240172037
 10
170.42273520999
 20
71.42899375519
 10
170.44827014868
 20
71.237819712973
 10
170.47381836764
 20
71.049166638675
 10
170.49929374186
 20
70.863483125583
 10
170.52461014633
 20
70.681217766988
 10
170.54968145603
 20
70.502819156177
 10
170.57442154594
 20
70.32873588644
 10
170.59874429104
 20
70.159416551064
 10
170.62256356632
 20
69.99530974334
 10
170.64581374254
 20
69.836730320997
 10
170.66851117359
 20
69.683458199536
 10
170.69069270916
 20
69.535139558896
 10
170.71239519892
 20
69.39142057902
 10
170.73365549256
 20
69.251947439849
 10
170.75451043973
 20
69.116366321324
 10
170.77499689014
 20
68.984323403386
 10
170.79515169344
 20
68.855464865977
 10
170.81501169933
 20
68.729436889037
 10
170.83461375747
 20
68.605885652509
 10
170.85399471755
 20
68.484457336332
 10
170.87319142924
 20
68.36479812045
 10
170.89224074222
 20
68.246554184802
 10
170.91117950616
 20
68.129371709331
 10
170.93004457075
 20
68.012896873977
 10
170.94887278567
 20
67.896775858682
  0
ARC
  5
150
330
18
100
AcDbEntity
  8
LEVEL001
  6
Continuous
 62
     3
370
    20
100
AcDbCircle
 10
174.7132209888
 20
76.17912000461
 30
0.0
 40
0.8
100
AcDbArc
 50
21.936801848504
 51
142.9279362894
  0
LINE
  5
151
330
18
100
AcDbEntity
  8
LEVEL001
  6
Continuous
 62
     3
370
    20
100
AcDbLine
 10
175.69586581913
 20
88.126937660096
 30
0.0
 11
175.38796814413
 21
82.99530974334
 31
0.0
  0
LINE
  5
152
330
18
100
AcDbEntity
  8
LEVEL001
  6
HIDDEN
 62
     1
370
    15
100
AcDbLine
 10
177.90886478423
 20
98.89530974334
 30
0.0
 11
178.23724004454
 21
98.89530974334
 31
0.0
  0
ARC
  5
153
330
18
100
AcDbEntity
  8
LEVEL001
  6
DOT
 62
     1
370
    15
100
AcDbCircle
 10
178.03724004453
 20
98.24530974334
 30
0.0
 40
0.6
100
AcDbArc
 50
89.999999999614
 51
102.62388350063
  0
ARC
  5
154
330
18
100
AcDbEntity
  8
LEVEL001
  6
DOT
 62
     1
370
    15
100
AcDbCircle
 10
178.03724004455
 20
97.34530974334
 30
0.0
 40
0.6
100
AcDbArc
 50
242.30847316514
 51
269.99999999869
  0
LINE
  5
155
330
18
100
AcDbEntity
  8
LEVEL001
  6
HIDDEN
 62
     1
370
    15
100
AcDbLine
 10
177.74598242381
 20
96.69530974334
 30
0.0
 11
178.23724004454
 21
96.69530974334
 31
0.0
  0
ARC
  5
156
330
18
100
AcDbEntity
  8
LEVEL001
  6
Continuous
 62
     3
370
    20
100
AcDbCircle
 10
178.03724004454
 20
97.345309743346
 30
0.0
 40
0.6
100
AcDbArc
 50
180.00000000059
 51
242.30847316659
  0
ARC
  5
157
330
18
100
AcDbEntity
  8
LEVEL001
  6
Continuous
 62
     3
370
    20
100
AcDbCircle
 10
178.03724004454
 20
98.24530974334
 30
0.0
 40
0.6
100
AcDbArc
 50
102.62388350103
 51
180.00000000008
  0
LINE
  5
158
330
18
100
AcDbEntity
  8
LEVEL001
  6
HIDDEN
 62
     1
370
    15
100
AcDbLine
 10
177.74598242381
 20
67.29530974334
 30
0.0
 11
178.23724004454
 21
67.29530974334
 31
0.0
  0
ARC
  5
159
330
18
100
AcDbEntity
  8
LEVEL001
  6
DOT
 62
     1
370
    15
100
AcDbCircle
 10
178.03724004455
 20
66.64530974334
 30
0.0
 40
0.6
100
AcDbArc
 50
90.000000001307
 51
117.69152683485
  0
ARC
  5
15A
330
18
100
AcDbEntity
  8
LEVEL001
  6
DOT
 62
     1
370
    15
100
AcDbCircle
 10
178.03724004453
 20
65.74530974334
 30
0.0
 40
0.6
100
AcDbArc
 50
257.37611649929
 51
270.00000000034
  0
LINE
  5
15B
330
18
100
AcDbEntity
  8
LEVEL001
  6
HIDDEN
 62
     1
370
    15
100
AcDbLine
 10
177.90886478423
 20
65.09530974334
 30
0.0
 11
178.23724004454
 21
65.09530974334
 31
0.0
  0
ARC
  5
15C
330
18
100
AcDbEntity
  8
LEVEL001
  6
Continuous
 62
     3
370
    20
100
AcDbCircle
 10
178.03724004454
 20
65.74530974334
 30
0.0
 40
0.6
100
AcDbArc
 50
179.99999999993
 51
257.37611649898
  0
ARC
  5
15D
330
18
100
AcDbEntity
  8
LEVEL001
  6
Continuous
 62
     3
370
    20
100
AcDbCircle
 10
178.03724004454
 20
66.645309743334
 30
0.0
 40
0.6
100
AcDbArc
 50
117.69152683341
 51
179.99999999941
  0
ARC
  5
15E
330
18
100
AcDbEntity
  8
LEVEL001
  6
Continuous
 62
     3
370
    20
100
AcDbCircle
 10
143.63873865897
 20
100.32655233587
 30
0.0
 40
34.3
100
AcDbArc
 50
339.16524836755
 51
359.6181751394
  0
ARC
  5
15F
330
18
100
AcDbEntity
  8
LEVEL001
  6
Continuous
 62
     3
370
    20
100
AcDbCircle
 10
143.63873865897
 20
63.664067150812
 30
0.0
 40
34.3
100
AcDbArc
 50
0.3818248606022001
 51
21.936801848487
  0
ARC
  5
160
330
18
100
AcDbEntity
  8
LEVEL001
  6
Continuous
 62
     3
370
    20
100
AcDbCircle
 10
178.33796814413
 20
63.895309743342
 30
0.0
 40
0.4
100
AcDbArc
 50
269.99999999995
 51
0.0
  0
ARC
  5
161
330
18
100
AcDbEntity
  8
LEVEL001
  6
Continuous
 62
     3
370
    20
100
AcDbCircle
 10
178.33796814413
 20
63.895309743342
 30
0.0
 40
0.4
100
AcDbArc
 50
180.38182486092
 51
269.99999999998
  0
ARC
  5
162
330
18
100
AcDbEntity
  8
LEVEL001
  6
Continuous
 62
     3
370
    20
100
AcDbCircle
 10
178.33796814413
 20
100.09530974334
 30
0.0
 40
0.4
100
AcDbArc
 50
0.0000000003126612
 51
90.000000000049
  0
ARC
  5
163
330
18
100
AcDbEntity
  8
LEVEL001
  6
Continuous
 62
     3
370
    20
100
AcDbCircle
 10
178.33796814413
 20
100.09530974334
 30
0.0
 40
0.4
100
AcDbArc
 50
90.00000000002301
 51
179.61817513908
  0
LWPOLYLINE
  5
164
330
18
100
AcDbEntity
  8
LEVEL001
  6
DOT
 62
     1
370
    15
100
AcDbPolyline
 90
        4
 70
     0
 43
0.0
 10
178.23724004454
 20
65.595309743354
 10
181.43724004454
 20
65.595309743354
 10
181.43724004454
 20
66.795309743354
 10
178.23724004451
 20
66.795309743354
  0
LINE
  5
165
330
18
100
AcDbEntity
  8
LEVEL001
  6
DASHDOT
 62
     1
370
    15
100
AcDbLine
 10
176.92120184653
 20
66.19530974334
 30
0.0
 11
181.96601428947
 21
66.19530974334
 31
0.0
  0
LWPOLYLINE
  5
166
330
18
100
AcDbEntity
  8
LEVEL001
  6
DOT
 62
     1
370
    15
100
AcDbPolyline
 90
        4
 70
     0
 43
0.0
 10
178.23724004454
 20
98.395309743326
 10
181.43724004454
 20
98.395309743326
 10
181.43724004454
 20
97.195309743326
 10
178.23724004451
 20
97.195309743326
  0
LINE
  5
167
330
18
100
AcDbEntity
  8
LEVEL001
  6
DASHDOT
 62
     1
370
    15
100
AcDbLine
 10
176.92120184653
 20
97.79530974334
 30
0.0
 11
181.96601428947
 21
97.79530974334
 31
0.0
  0
LINE
  5
168
330
18
100
AcDbEntity
  8
LEVEL001
  6
Continuous
 62
     1
370
    15
100
AcDbLine
 10
176.33796814413
 20
100.49530974334
 30
0.0
 11
154.80677055054
 21
100.49530974334
 31
0.0
  0
LINE
  5
169
330
18
100
AcDbEntity
  8
LEVEL001
  6
Continuous
 62
     1
370
    15
100
AcDbLine
 10
176.33796814413
 20
63.495309743342
 30
0.0
 11
154.80677055054
 21
63.495309743342
 31
0.0
  0
LINE
  5
16A
330
18
100
AcDbEntity
  8
LEVEL001
  6
Continuous
 62
     1
370
    15
100
AcDbLine
 10
156.80677055054
 20
100.49530974334
 30
0.0
 11
156.80677055054
 21
81.99530974334
 31
0.0
  0
LINE
  5
16B
330
18
100
AcDbEntity
  8
LEVEL001
  6
Continuous
 62
     1
370
    15
100
AcDbLine
 10
156.80677055054
 20
63.495309743342
 30
0.0
 11
156.80677055054
 21
81.99530974334
 31
0.0
  0
LINE
  5
16C
330
18
100
AcDbEntity
  8
LEVEL001
  6
Continuous
 62
     1
370
    15
100
AcDbLine
 10
156.80677055054
 20
100.49530974334
 30
0.0
 11
156.00292297325
 21
97.495309743338
 31
0.0
  0
LINE
  5
16D
330
18
100
AcDbEntity
  8
LEVEL001
  6
Continuous
 62
     1
370
    15
100
AcDbLine
 10
156.80677055054
 20
100.49530974334
 30
0.0
 11
157.61061812784
 21
97.495309743338
 31
0.0
  0
LINE
  5
16E
330
18
100
AcDbEntity
  8
LEVEL001
  6
Continuous
 62
     1
370
    15
100
AcDbLine
 10
156.80677055054
 20
63.495309743342
 30
0.0
 11
157.61061812784
 21
66.495309743342
 31
0.0
  0
LINE
  5
16F
330
18
100
AcDbEntity
  8
LEVEL001
  6
Continuous
 62
     1
370
    15
100
AcDbLine
 10
156.80677055054
 20
63.495309743342
 30
0.0
 11
156.00292297325
 21
66.495309743342
 31
0.0
  0
MTEXT
  5
170
330
18
100
AcDbEntity
  8
LEVEL001
 62
     3
370
    20
100
AcDbMText
 10
155.09248483626
 20
81.99530974334
 30
0.0
 40
4.0
 41
0.0
 71
     8
 72
     1
  1
\A1;(185)
 11
0.0
 21
1.0
 31
0.0
 73
     1
 44
1.0
  0
LWPOLYLINE
  5
171
330
18
100
AcDbEntity
  8
LEVEL001
  6
Continuous
 62
     3
370
    20
100
AcDbPolyline
 90
        4
 70
     1
 43
0.0
 10
181.46974124035
 20
205.57115062537
 10
181.46974124035
 20
203.57115062537
 10
196.26974124035
 20
203.57115062537
 10
196.26974124035
 20
205.57115062537
  0
LINE
  5
172
330
18
100
AcDbEntity
  8
LEVEL001
  6
DOT
 62
     1
370
    15
100
AcDbLine
 10
182.11974124035
 20
197.77115062537
 30
0.0
 11
195.61974124035
 21
197.77115062537
 31
0.0
  0
LINE
  5
173
330
18
100
AcDbEntity
  8
LEVEL001
  6
DOT
 62
     1
370
    15
100
AcDbLine
 10
195.61974124035
 20
203.57115062537
 30
0.0
 11
195.61974124035
 21
197.77115062537
 31
0.0
  0
LINE
  5
174
330
18
100
AcDbEntity
  8
LEVEL001
  6
DOT
 62
     1
370
    15
100
AcDbLine
 10
182.11974124035
 20
203.57115062537
 30
0.0
 11
182.11974124035
 21
197.77115062537
 31
0.0
  0
LINE
  5
175
330
18
100
AcDbEntity
  8
LEVEL001
  6
DASHDOT
 62
     1
370
    15
100
AcDbLine
 10
177.46974124035
 20
221.39658483111
 30
0.0
 11
177.46974124035
 21
218.54571641962
 31
0.0
  0
LINE
  5
176
330
18
100
AcDbEntity
  8
LEVEL001
  6
DASHDOT
 62
     1
370
    15
100
AcDbLine
 10
178.93342578386
 20
219.97115062537
 30
0.0
 11
176.00605669683
 21
219.97115062537
 31
0.0
  0
LINE
  5
177
330
18
100
AcDbEntity
  8
LEVEL001
  6
DOT
 62
     1
370
    15
100
AcDbLine
 10
176.26974124035
 20
213.17115062537
 30
0.0
 11
183.26974124035
 21
213.17115062537
 31
0.0
  0
ARC
  5
178
330
18
100
AcDbEntity
  8
LEVEL001
  6
DOT
 62
     1
370
    15
100
AcDbCircle
 10
183.26974124035
 20
212.17115062537
 30
0.0
 40
1.0
100
AcDbArc
 50
0.0
 51
90.0
  0
LINE
  5
179
330
18
100
AcDbEntity
  8
LEVEL001
  6
DOT
 62
     1
370
    15
100
AcDbLine
 10
193.46974124035
 20
207.17115062537
 30
0.0
 11
184.26974124035
 21
207.17115062537
 31
0.0
  0
LINE
  5
17A
330
18
100
AcDbEntity
  8
LEVEL001
  6
DOT
 62
     1
370
    15
100
AcDbLine
 10
184.26974124035
 20
212.17115062537
 30
0.0
 11
184.26974124035
 21
206.57115062537
 31
0.0
  0
LINE
  5
17B
330
18
100
AcDbEntity
  8
LEVEL001
  6
DOT
 62
     1
370
    15
100
AcDbLine
 10
185.36974124035
 20
207.17115062537
 30
0.0
 11
185.36974124035
 21
206.57115062537
 31
0.0
  0
LINE
  5
17C
330
18
100
AcDbEntity
  8
LEVEL001
  6
DOT
 62
     1
370
    15
100
AcDbLine
 10
186.36974124035
 20
207.17115062537
 30
0.0
 11
186.36974124035
 21
206.57115062537
 31
0.0
  0
LINE
  5
17D
330
18
100
AcDbEntity
  8
LEVEL001
  6
DOT
 62
     1
370
    15
100
AcDbLine
 10
191.36974124035
 20
207.17115062537
 30
0.0
 11
191.36974124035
 21
206.57115062537
 31
0.0
  0
LINE
  5
17E
330
18
100
AcDbEntity
  8
LEVEL001
  6
DOT
 62
     1
370
    15
100
AcDbLine
 10
192.36974124035
 20
207.17115062537
 30
0.0
 11
192.36974124035
 21
206.57115062537
 31
0.0
  0
LINE
  5
17F
330
18
100
AcDbEntity
  8
LEVEL001
  6
DOT
 62
     1
370
    15
100
AcDbLine
 10
193.46974124035
 20
224.57115062537
 30
0.0
 11
193.46974124035
 21
206.57115062537
 31
0.0
  0
LINE
  5
180
330
18
100
AcDbEntity
  8
LEVEL001
  6
DOT
 62
     1
370
    15
100
AcDbLine
 10
184.26974124035
 20
206.57115062537
 30
0.0
 11
193.46974124035
 21
206.57115062537
 31
0.0
  0
LINE
  5
181
330
18
100
AcDbEntity
  8
LEVEL001
  6
DOT
 62
     1
370
    15
100
AcDbLine
 10
193.46974124035
 20
224.57115062537
 30
0.0
 11
175.66974124035
 21
224.57115062537
 31
0.0
  0
LINE
  5
182
330
18
100
AcDbEntity
  8
LEVEL001
  6
DOT
 62
     1
370
    15
100
AcDbLine
 10
193.46974124035
 20
223.97115062537
 30
0.0
 11
175.66974124035
 21
223.97115062537
 31
0.0
  0
LINE
  5
183
330
18
100
AcDbEntity
  8
LEVEL001
  6
DOT
 62
     1
370
    15
100
AcDbLine
 10
187.36974124035
 20
223.97115062537
 30
0.0
 11
187.36974124035
 21
224.57115062537
 31
0.0
  0
LINE
  5
184
330
18
100
AcDbEntity
  8
LEVEL001
  6
DOT
 62
     1
370
    15
100
AcDbLine
 10
190.36974124035
 20
224.57115062537
 30
0.0
 11
190.36974124035
 21
223.97115062537
 31
0.0
  0
ARC
  5
185
330
18
100
AcDbEntity
  8
LEVEL001
  6
DOT
 62
     1
370
    15
100
AcDbCircle
 10
176.26974124035
 20
213.77115062537
 30
0.0
 40
0.6
100
AcDbArc
 50
180.0
 51
269.99999999999
  0
LINE
  5
186
330
18
100
AcDbEntity
  8
LEVEL001
  6
DOT
 62
     1
370
    15
100
AcDbLine
 10
175.66974124035
 20
213.77115062537
 30
0.0
 11
175.66974124035
 21
216.77099486863
 31
0.0
  0
CIRCLE
  5
187
330
18
100
AcDbEntity
  8
LEVEL001
  6
DOT
 62
     1
370
    15
100
AcDbCircle
 10
177.46974124035
 20
219.97115062537
 30
0.0
 40
0.62
  0
CIRCLE
  5
188
330
18
100
AcDbEntity
  8
LEVEL001
  6
DOT
 62
     1
370
    15
100
AcDbCircle
 10
179.86974124035
 20
221.75115062537
 30
0.0
 40
0.62
  0
CIRCLE
  5
189
330
18
100
AcDbEntity
  8
LEVEL001
  6
DOT
 62
     1
370
    15
100
AcDbCircle
 10
187.66974124035
 20
221.75115062537
 30
0.0
 40
0.62
  0
LINE
  5
18A
330
18
100
AcDbEntity
  8
LEVEL001
  6
DOT
 62
     1
370
    15
100
AcDbLine
 10
175.66974124035
 20
224.57115062537
 30
0.0
 11
175.66974124035
 21
216.77099486863
 31
0.0
  0
CIRCLE
  5
18B
330
18
100
AcDbEntity
  8
LEVEL001
  6
DOT
 62
     1
370
    15
100
AcDbCircle
 10
177.46974124035
 20
219.97115062537
 30
0.0
 40
1.75
  0
LWPOLYLINE
  5
18C
330
18
100
AcDbEntity
  8
LEVEL001
  6
Continuous
 62
     3
370
    20
100
AcDbPolyline
 90
        4
 70
     0
 43
0.0
 10
196.36974124035
 20
173.57115062537
 10
196.36974124035
 20
203.57115062537
 10
181.36974124035
 20
203.57115062537
 10
181.36974124035
 20
173.57115062537
  0
ARC
  5
18D
330
18
100
AcDbEntity
  8
LEVEL001
  6
Continuous
 62
     3
370
    20
100
AcDbCircle
 10
185.11974124035
 20
180.06634115375
 30
0.0
 40
7.5
100
AcDbArc
 50
240.0
 51
299.99999999999
  0
ARC
  5
18E
330
18
100
AcDbEntity
  8
LEVEL001
  6
Continuous
 62
     3
370
    20
100
AcDbCircle
 10
192.61974124035
 20
180.06634115375
 30
0.0
 40
7.5
100
AcDbArc
 50
239.99999999999
 51
300.0
  0
ARC
  5
18F
330
18
100
AcDbEntity
  8
LEVEL001
  6
Continuous
 62
     3
370
    20
100
AcDbCircle
 10
192.61974124034
 20
167.07596009698
 30
0.0
 40
7.5
100
AcDbArc
 50
59.999999999995
 51
120.0
  0
LINE
  5
190
330
18
100
AcDbEntity
  8
LEVEL001
  6
DASHDOT
 62
     1
370
    15
100
AcDbLine
 10
188.86974124035
 20
235.16032246769
 30
0.0
 11
188.86974124035
 21
168.57115062537
 31
0.0
  0
LINE
  5
191
330
18
100
AcDbEntity
  8
LEVEL001
  6
DOT
 62
     2
370
    20
100
AcDbLine
 10
179.21974124035
 20
219.97115062537
 30
0.0
 11
179.21974124035
 21
205.973460698
 31
0.0
  0
LINE
  5
192
330
18
100
AcDbEntity
  8
LEVEL001
  6
DOT
 62
     2
370
    20
100
AcDbLine
 10
180.81974124035
 20
219.97115062537
 30
0.0
 11
180.81974124035
 21
205.64027973127
 31
0.0
  0
LINE
  5
193
330
18
100
AcDbEntity
  8
LEVEL001
  6
DOT
 62
     2
370
    20
100
AcDbLine
 10
174.11974124035
 20
219.97115062537
 30
0.0
 11
174.11974124035
 21
209.64507606923
 31
0.0
  0
LINE
  5
194
330
18
100
AcDbEntity
  8
LEVEL001
  6
DOT
 62
     2
370
    20
100
AcDbLine
 10
175.71974124035
 20
219.97115062537
 30
0.0
 11
175.71974124035
 21
207.88434748544
 31
0.0
  0
ARC
  5
195
330
18
100
AcDbEntity
  8
LEVEL001
  6
DOT
 62
     2
370
    20
100
AcDbCircle
 10
177.46974124035
 20
219.97115062537
 30
0.0
 40
1.7500000000001
100
AcDbArc
 50
0.0
 51
180.0
  0
ARC
  5
196
330
18
100
AcDbEntity
  8
LEVEL001
  6
DOT
 62
     2
370
    20
100
AcDbCircle
 10
177.46974124035
 20
219.97115062537
 30
0.0
 40
3.3500000000001
100
AcDbArc
 50
0.0
 51
180.0
  0
LINE
  5
197
330
18
100
AcDbEntity
  8
LEVEL001
  6
Continuous
 62
     3
370
    20
100
AcDbLine
 10
179.21974124035
 20
205.973460698
 30
0.0
 11
179.21974124035
 21
192.07115062537
 31
0.0
  0
LINE
  5
198
330
18
100
AcDbEntity
  8
LEVEL001
  6
Continuous
 62
     3
370
    20
100
AcDbLine
 10
180.81974124035
 20
205.64027973127
 30
0.0
 11
180.81974124035
 21
192.07115062537
 31
0.0
  0
LINE
  5
199
330
18
100
AcDbEntity
  8
LEVEL001
  6
Continuous
 62
     3
370
    20
100
AcDbLine
 10
174.11974124035
 20
209.64507606923
 30
0.0
 11
174.11974124035
 21
192.07115062537
 31
0.0
  0
LINE
  5
19A
330
18
100
AcDbEntity
  8
LEVEL001
  6
Continuous
 62
     3
370
    20
100
AcDbLine
 10
175.71974124035
 20
207.88434748544
 30
0.0
 11
175.71974124035
 21
192.07115062537
 31
0.0
  0
ARC
  5
19B
330
18
100
AcDbEntity
  8
LEVEL001
  6
Continuous
 62
     3
370
    20
100
AcDbCircle
 10
177.46974124034
 20
176.92115062537
 30
0.0
 40
1.7500000000001
100
AcDbArc
 50
179.99999999999
 51
0.0
  0
ARC
  5
19C
330
18
100
AcDbEntity
  8
LEVEL001
  6
Continuous
 62
     3
370
    20
100
AcDbCircle
 10
177.46974124034
 20
176.92115062536
 30
0.0
 40
3.3500000000001
100
AcDbArc
 50
179.99999999999
 51
0.0
  0
LINE
  5
19D
330
18
100
AcDbEntity
  8
LEVEL001
  6
Continuous
 62
     3
370
    20
100
AcDbLine
 10
179.21974124034
 20
176.92115062536
 30
0.0
 11
179.21974124034
 21
190.07115062537
 31
0.0
  0
LINE
  5
19E
330
18
100
AcDbEntity
  8
LEVEL001
  6
Continuous
 62
     3
370
    20
100
AcDbLine
 10
180.81974124034
 20
176.92115062536
 30
0.0
 11
180.81974124034
 21
190.07115062537
 31
0.0
  0
LINE
  5
19F
330
18
100
AcDbEntity
  8
LEVEL001
  6
Continuous
 62
     3
370
    20
100
AcDbLine
 10
174.11974124034
 20
176.92115062537
 30
0.0
 11
174.11974124034
 21
190.07115062537
 31
0.0
  0
LINE
  5
1A0
330
18
100
AcDbEntity
  8
LEVEL001
  6
Continuous
 62
     3
370
    20
100
AcDbLine
 10
175.71974124034
 20
176.92115062536
 30
0.0
 11
175.71974124034
 21
190.07115062537
 31
0.0
  0
ARC
  5
1A1
330
18
100
AcDbEntity
  8
LEVEL001
  6
Continuous
 62
     3
370
    20
100
AcDbCircle
 10
175.31974124034
 20
189.37833030234
 30
0.0
 40
0.79999999999659
100
AcDbArc
 50
59.99999999999901
 51
120.0
  0
ARC
  5
1A2
330
18
100
AcDbEntity
  8
LEVEL001
  6
Continuous
 62
     3
370
    20
100
AcDbCircle
 10
174.51974124034
 20
189.37833030234
 30
0.0
 40
0.8000000000035
100
AcDbArc
 50
59.999999999996
 51
119.99999999999
  0
ARC
  5
1A3
330
18
100
AcDbEntity
  8
LEVEL001
  6
Continuous
 62
     3
370
    20
100
AcDbCircle
 10
174.51974124034
 20
190.7639709484
 30
0.0
 40
0.8000000000035
100
AcDbArc
 50
239.99999999999
 51
299.99999999999
  0
ARC
  5
1A4
330
18
100
AcDbEntity
  8
LEVEL001
  6
Continuous
 62
     3
370
    20
100
AcDbCircle
 10
174.51974124035
 20
192.7639709484
 30
0.0
 40
0.8
100
AcDbArc
 50
239.99999999999
 51
299.99999999999
  0
ARC
  5
1A5
330
18
100
AcDbEntity
  8
LEVEL001
  6
Continuous
 62
     3
370
    20
100
AcDbCircle
 10
175.31974124035
 20
192.7639709484
 30
0.0
 40
0.80000000000009
100
AcDbArc
 50
239.99999999999
 51
299.99999999999
  0
ARC
  5
1A6
330
18
100
AcDbEntity
  8
LEVEL001
  6
Continuous
 62
     3
370
    20
100
AcDbCircle
 10
175.31974124035
 20
191.37833030234
 30
0.0
 40
0.80000000000009
100
AcDbArc
 50
59.999999999993
 51
120.0
  0
ARC
  5
1A7
330
18
100
AcDbEntity
  8
LEVEL001
  6
Continuous
 62
     3
370
    20
100
AcDbCircle
 10
180.41974124034
 20
189.37833030234
 30
0.0
 40
0.79999999999659
100
AcDbArc
 50
59.99999999999901
 51
120.0
  0
ARC
  5
1A8
330
18
100
AcDbEntity
  8
LEVEL001
  6
Continuous
 62
     3
370
    20
100
AcDbCircle
 10
179.61974124034
 20
189.37833030234
 30
0.0
 40
0.8000000000035
100
AcDbArc
 50
59.999999999987
 51
120.0
  0
ARC
  5
1A9
330
18
100
AcDbEntity
  8
LEVEL001
  6
Continuous
 62
     3
370
    20
100
AcDbCircle
 10
179.61974124034
 20
190.7639709484
 30
0.0
 40
0.8000000000035
100
AcDbArc
 50
239.99999999999
 51
299.99999999999
  0
ARC
  5
1AA
330
18
100
AcDbEntity
  8
LEVEL001
  6
Continuous
 62
     3
370
    20
100
AcDbCircle
 10
179.61974124035
 20
192.7639709484
 30
0.0
 40
0.8
100
AcDbArc
 50
239.99999999999
 51
299.99999999999
  0
ARC
  5
1AB
330
18
100
AcDbEntity
  8
LEVEL001
  6
Continuous
 62
     3
370
    20
100
AcDbCircle
 10
180.41974124035
 20
192.7639709484
 30
0.0
 40
0.80000000000009
100
AcDbArc
 50
239.99999999999
 51
299.99999999999
  0
ARC
  5
1AC
330
18
100
AcDbEntity
  8
LEVEL001
  6
Continuous
 62
     3
370
    20
100
AcDbCircle
 10
180.41974124035
 20
191.37833030234
 30
0.0
 40
0.80000000000009
100
AcDbArc
 50
59.999999999993
 51
120.0
  0
LINE
  5
1AD
330
18
100
AcDbEntity
  8
LEVEL001
  6
DASHDOT
 62
     1
370
    15
100
AcDbLine
 10
197.43689179487
 20
200.57115062537
 30
0.0
 11
194.48545695966
 21
200.57115062537
 31
0.0
  0
LINE
  5
1AE
330
18
100
AcDbEntity
  8
LEVEL001
  6
DASHDOT
 62
     1
370
    15
100
AcDbLine
 10
185.11974124032
 20
201.73703299034
 30
0.0
 11
185.11974124032
 21
199.40526826039
 31
0.0
  0
LINE
  5
1AF
330
18
100
AcDbEntity
  8
LEVEL001
  6
DASHDOT
 62
     1
370
    15
100
AcDbLine
 10
184.15136719571
 20
200.57115062537
 30
0.0
 11
186.08811528493
 21
200.57115062537
 31
0.0
  0
ARC
  5
1B0
330
18
100
AcDbEntity
  8
LEVEL001
  6
DOT
 62
     1
370
    15
100
AcDbCircle
 10
188.86974124035
 20
216.27115062537
 30
0.0
 40
16.4
100
AcDbArc
 50
10.548276958763
 51
169.45172304124
  0
LINE
  5
1B1
330
18
100
AcDbEntity
  8
LEVEL001
  6
DASHDOT
 62
     1
370
    15
100
AcDbLine
 10
187.76974124035
 20
216.67339929562
 30
0.0
 11
189.96974124035
 21
216.67339929562
 31
0.0
  0
CIRCLE
  5
1B2
330
18
100
AcDbEntity
  8
LEVEL001
  6
Continuous
 62
     3
370
    20
100
AcDbCircle
 10
188.86974124035
 20
216.67339929562
 30
0.0
 40
0.5
  0
LINE
  5
1B3
330
18
100
AcDbEntity
  8
LEVEL001
  6
Continuous
 62
     3
370
    20
100
AcDbLine
 10
172.36974124035
 20
215.17115062537
 30
0.0
 11
205.36974124035
 21
215.17115062537
 31
0.0
  0
LINE
  5
1B4
330
18
100
AcDbEntity
  8
LEVEL001
  6
DOT
 62
     1
370
    15
100
AcDbLine
 10
204.99259777763
 20
219.27339929562
 30
0.0
 11
205.0696911557
 21
215.17115062537
 31
0.0
  0
LINE
  5
1B5
330
18
100
AcDbEntity
  8
LEVEL001
  6
DOT
 62
     1
370
    15
100
AcDbLine
 10
172.74688470306
 20
219.27339929562
 30
0.0
 11
172.66979132499
 21
215.17115062537
 31
0.0
  0
LINE
  5
1B6
330
18
100
AcDbEntity
  8
LEVEL001
  6
Continuous
 62
     3
370
    20
100
AcDbLine
 10
205.36974124035
 20
215.17115062537
 30
0.0
 11
205.30086137388
 21
218.94050944217
 31
0.0
  0
ARC
  5
1B7
330
18
100
AcDbEntity
  8
LEVEL001
  6
Continuous
 62
     3
370
    20
100
AcDbCircle
 10
201.30152905773
 20
218.86742712518
 30
0.0
 40
4.0
100
AcDbArc
 50
1.0468853298468
 51
11.796205268401
  0
LINE
  5
1B8
330
18
100
AcDbEntity
  8
LEVEL001
  6
Continuous
 62
     3
370
    20
100
AcDbLine
 10
172.36974124035
 20
215.17115062537
 30
0.0
 11
172.4386211068
 21
218.9405094421
 31
0.0
  0
ARC
  5
1B9
330
18
100
AcDbEntity
  8
LEVEL001
  6
Continuous
 62
     3
370
    20
100
AcDbCircle
 10
176.43795342295
 20
218.86742712512
 30
0.0
 40
4.0
100
AcDbArc
 50
168.20379473184
 51
178.9531146703
  0
ARC
  5
1BA
330
18
100
AcDbEntity
  8
LEVEL001
  6
Continuous
 62
     3
370
    20
100
AcDbCircle
 10
188.86974124035
 20
216.27115062537
 30
0.0
 40
16.7
100
AcDbArc
 50
11.796205268404
 51
168.20379473184
  0
ARC
  5
1BB
330
18
100
AcDbEntity
  8
LEVEL001
  6
Continuous
 62
     3
370
    20
100
AcDbCircle
 10
195.76974124035
 20
215.17115062537
 30
0.0
 40
9.6
100
AcDbArc
 50
270.0
 51
0.0
  0
LINE
  5
1BC
330
18
100
AcDbEntity
  8
LEVEL001
  6
Continuous
 62
     3
370
    20
100
AcDbLine
 10
205.36974124035
 20
215.17115062537
 30
0.0
 11
205.04974124035
 21
215.17115062537
 31
0.0
  0
POINT
  5
1BD
330
18
100
AcDbEntity
  8
LEVEL001
 62
     1
100
AcDbPoint
 10
191.86974124035
 20
206.57115062537
 30
0.0
  0
LINE
  5
1BE
330
18
100
AcDbEntity
  8
LEVEL001
  6
DOT
 62
     1
370
    15
100
AcDbLine
 10
188.86974124035
 20
206.57115062537
 30
0.0
 11
195.76974124035
 21
206.57115062537
 31
0.0
  0
ARC
  5
1BF
330
18
100
AcDbEntity
  8
LEVEL001
  6
DOT
 62
     1
370
    15
100
AcDbCircle
 10
195.76974124035
 20
215.17115062537
 30
0.0
 40
8.6
100
AcDbArc
 50
270.0
 51
0.0
  0
LINE
  5
1C0
330
18
100
AcDbEntity
  8
LEVEL001
  6
DOT
 62
     1
370
    15
100
AcDbLine
 10
204.56974124035
 20
218.17115062537
 30
0.0
 11
204.36974124035
 21
217.97115062537
 31
0.0
  0
LINE
  5
1C1
330
18
100
AcDbEntity
  8
LEVEL001
  6
DOT
 62
     1
370
    15
100
AcDbLine
 10
204.36974124035
 20
215.17115062537
 30
0.0
 11
204.36974124035
 21
217.97115062537
 31
0.0
  0
LINE
  5
1C2
330
18
100
AcDbEntity
  8
LEVEL001
  6
Continuous
 62
     3
370
    20
100
AcDbLine
 10
205.04974124035
 20
215.17115062537
 30
0.0
 11
188.86974124035
 21
215.17115062537
 31
0.0
  0
LINE
  5
1C3
330
18
100
AcDbEntity
  8
LEVEL001
  6
Continuous
 62
     3
370
    20
100
AcDbLine
 10
195.76974124035
 20
205.57115062537
 30
0.0
 11
188.86974124035
 21
205.57115062537
 31
0.0
  0
LINE
  5
1C4
330
18
100
AcDbEntity
  8
LEVEL001
  6
DASHDOT
 62
     1
370
    15
100
AcDbLine
 10
177.46974124035
 20
209.04660982625
 30
0.0
 11
177.46974124035
 21
205.57375514534
 31
0.0
  0
POINT
  5
1C5
330
18
100
AcDbEntity
  8
LEVEL001
 62
     1
100
AcDbPoint
 10
190.36974124035
 20
206.57115062537
 30
0.0
  0
LINE
  5
1C6
330
18
100
AcDbEntity
  8
LEVEL001
  6
DASHDOT
 62
     1
370
    15
100
AcDbLine
 10
188.86974124035
 20
235.16032246769
 30
0.0
 11
188.86974124035
 21
191.57115062537
 31
0.0
  0
ARC
  5
1C7
330
18
100
AcDbEntity
  8
LEVEL001
  6
Continuous
 62
     3
370
    20
100
AcDbCircle
 10
181.96974124035
 20
215.17115062537
 30
0.0
 40
9.6
100
AcDbArc
 50
180.0
 51
270.0
  0
LINE
  5
1C8
330
18
100
AcDbEntity
  8
LEVEL001
  6
Continuous
 62
     3
370
    20
100
AcDbLine
 10
172.36974124035
 20
215.17115062537
 30
0.0
 11
172.68974124035
 21
215.17115062537
 31
0.0
  0
POINT
  5
1C9
330
18
100
AcDbEntity
  8
LEVEL001
 62
     1
100
AcDbPoint
 10
185.86974124035
 20
206.57115062537
 30
0.0
  0
LINE
  5
1CA
330
18
100
AcDbEntity
  8
LEVEL001
  6
DOT
 62
     1
370
    15
100
AcDbLine
 10
188.86974124035
 20
206.57115062537
 30
0.0
 11
181.96974124035
 21
206.57115062537
 31
0.0
  0
ARC
  5
1CB
330
18
100
AcDbEntity
  8
LEVEL001
  6
DOT
 62
     1
370
    15
100
AcDbCircle
 10
181.96974124035
 20
215.17115062537
 30
0.0
 40
8.6
100
AcDbArc
 50
180.0
 51
270.0
  0
LINE
  5
1CC
330
18
100
AcDbEntity
  8
LEVEL001
  6
DOT
 62
     1
370
    15
100
AcDbLine
 10
173.16974124035
 20
218.17115062537
 30
0.0
 11
173.36974124035
 21
217.97115062537
 31
0.0
  0
LINE
  5
1CD
330
18
100
AcDbEntity
  8
LEVEL001
  6
DOT
 62
     1
370
    15
100
AcDbLine
 10
173.36974124035
 20
215.17115062537
 30
0.0
 11
173.36974124035
 21
217.97115062537
 31
0.0
  0
LINE
  5
1CE
330
18
100
AcDbEntity
  8
LEVEL001
  6
Continuous
 62
     3
370
    20
100
AcDbLine
 10
172.68974124035
 20
215.17115062537
 30
0.0
 11
188.86974124035
 21
215.17115062537
 31
0.0
  0
LINE
  5
1CF
330
18
100
AcDbEntity
  8
LEVEL001
  6
Continuous
 62
     3
370
    20
100
AcDbLine
 10
181.96974124035
 20
205.57115062537
 30
0.0
 11
188.86974124035
 21
205.57115062537
 31
0.0
  0
POINT
  5
1D0
330
18
100
AcDbEntity
  8
LEVEL001
 62
     1
100
AcDbPoint
 10
187.36974124035
 20
206.57115062537
 30
0.0
  0
ARC
  5
1D1
330
18
100
AcDbEntity
  8
LEVEL001
  6
DOT
 62
     1
370
    15
100
AcDbCircle
 10
173.61974124035
 20
210.85403353175
 30
0.0
 40
0.2
100
AcDbArc
 50
207.33986850845
 51
0.0
  0
LINE
  5
1D2
330
18
100
AcDbEntity
  8
LEVEL001
  6
DOT
 62
     1
370
    15
100
AcDbLine
 10
173.81974124035
 20
212.39311174875
 30
0.0
 11
173.81974124035
 21
210.85403353175
 31
0.0
  0
ARC
  5
1D3
330
18
100
AcDbEntity
  8
LEVEL001
  6
DOT
 62
     1
370
    15
100
AcDbCircle
 10
181.31974124035
 20
205.79365095861
 30
0.0
 40
0.2
100
AcDbArc
 50
180.0
 51
266.03489359891
  0
LINE
  5
1D4
330
18
100
AcDbEntity
  8
LEVEL001
  6
DOT
 62
     1
370
    15
100
AcDbLine
 10
181.11974124035
 20
206.39518913958
 30
0.0
 11
181.11974124035
 21
205.79365095861
 31
0.0
  0
ARC
  5
1D5
330
18
100
AcDbEntity
  8
LEVEL001
  6
DOT
 62
     1
370
    15
100
AcDbCircle
 10
181.31974124035
 20
206.39518913958
 30
0.0
 40
0.2
100
AcDbArc
 50
85.764067646726
 51
180.0
  0
ARC
  5
1D6
330
18
100
AcDbEntity
  8
LEVEL001
  6
DOT
 62
     1
370
    15
100
AcDbCircle
 10
173.61974124035
 20
212.39311174875
 30
0.0
 40
0.2
100
AcDbArc
 50
0.0000000000390827
 51
18.402246195978
  0
POINT
  5
1D7
330
18
100
AcDbEntity
  8
LEVEL001
 62
     1
100
AcDbPoint
 10
204.36974124035
 20
218.17115062537
 30
0.0
  0
LINE
  5
1D8
330
18
100
AcDbEntity
  8
LEVEL001
  6
DOT
 62
     1
370
    15
100
AcDbLine
 10
188.86974124035
 20
218.17115062537
 30
0.0
 11
204.56974124035
 21
218.17115062537
 31
0.0
  0
POINT
  5
1D9
330
18
100
AcDbEntity
  8
LEVEL001
 62
     1
100
AcDbPoint
 10
173.36974124035
 20
218.17115062537
 30
0.0
  0
LINE
  5
1DA
330
18
100
AcDbEntity
  8
LEVEL001
  6
DOT
 62
     1
370
    15
100
AcDbLine
 10
188.86974124035
 20
218.17115062537
 30
0.0
 11
173.16974124035
 21
218.17115062537
 31
0.0
  0
LINE
  5
1DB
330
18
100
AcDbEntity
  8
LEVEL001
  6
DOT
 62
     1
370
    15
100
AcDbLine
 10
204.79336237286
 20
218.17115062537
 30
0.0
 11
204.56974124035
 21
218.17115062537
 31
0.0
  0
LINE
  5
1DC
330
18
100
AcDbEntity
  8
LEVEL001
  6
DOT
 62
     1
370
    15
100
AcDbLine
 10
204.79336237286
 20
218.17115062537
 30
0.0
 11
204.99336237286
 21
217.97115062537
 31
0.0
  0
POINT
  5
1DD
330
18
100
AcDbEntity
  8
LEVEL001
 62
     1
100
AcDbPoint
 10
204.99336237286
 20
218.17115062537
 30
0.0
  0
LINE
  5
1DE
330
18
100
AcDbEntity
  8
LEVEL001
  6
DOT
 62
     1
370
    15
100
AcDbLine
 10
205.04974124035
 20
215.17115062537
 30
0.0
 11
204.99336237286
 21
217.97115062537
 31
0.0
  0
LINE
  5
1DF
330
18
100
AcDbEntity
  8
LEVEL001
  6
DOT
 62
     1
370
    15
100
AcDbLine
 10
172.94612010784
 20
218.17115062537
 30
0.0
 11
173.16974124035
 21
218.17115062537
 31
0.0
  0
LINE
  5
1E0
330
18
100
AcDbEntity
  8
LEVEL001
  6
DOT
 62
     1
370
    15
100
AcDbLine
 10
172.94612010784
 20
218.17115062537
 30
0.0
 11
172.74612010784
 21
217.97115062537
 31
0.0
  0
POINT
  5
1E1
330
18
100
AcDbEntity
  8
LEVEL001
 62
     1
100
AcDbPoint
 10
172.74612010784
 20
218.17115062537
 30
0.0
  0
LINE
  5
1E2
330
18
100
AcDbEntity
  8
LEVEL001
  6
DOT
 62
     1
370
    15
100
AcDbLine
 10
172.68974124035
 20
215.17115062537
 30
0.0
 11
172.74612010784
 21
217.97115062537
 31
0.0
  0
LINE
  5
1E3
330
18
100
AcDbEntity
  8
LEVEL001
  6
Continuous
 62
     3
370
    20
100
AcDbLine
 10
172.86694309069
 20
152.8676307671
 30
0.0
 11
202.86694309069
 21
152.8676307671
 31
0.0
  0
TEXT
  5
1E4
330
18
100
AcDbEntity
  8
LEVEL001
 62
     3
370
    20
100
AcDbText
 10
181.61694309069
 20
147.8676307671
 30
0.0
 40
5.0
  1
Ｓ＝１：５
 41
0.5
 72
     5
 11
194.11694309069
 21
147.8676307671
 31
0.0
100
AcDbText
  0
TEXT
  5
1E5
330
18
100
AcDbEntity
  8
LEVEL001
 62
     3
370
    20
100
AcDbText
 10
175.36694309069
 20
153.8676307671
 30
0.0
 40
5.0
  1
先端部詳細
 72
     5
 11
200.36694309069
 21
153.8676307671
 31
0.0
100
AcDbText
  0
LINE
  5
1E6
330
18
100
AcDbEntity
  8
LEVEL001
  6
Continuous
 62
     1
370
    15
100
AcDbLine
 10
176.59744199811
 20
220.61007048674
 30
0.0
 11
168.52991253944
 21
226.0034599689
 31
0.0
  0
CIRCLE
  5
1E7
330
18
100
AcDbEntity
  8
LEVEL001
  6
Continuous
 62
     1
370
    15
100
AcDbCircle
 10
165.20457468206
 20
228.22654974087
 30
0.0
 40
4.0
  0
LINE
  5
1E8
330
18
100
AcDbEntity
  8
LEVEL001
  6
Continuous
 62
     1
370
    15
100
AcDbLine
 10
176.59744199811
 20
220.61007048674
 30
0.0
 11
174.55019493689
 21
222.94565401081
 31
0.0
  0
LINE
  5
1E9
330
18
100
AcDbEntity
  8
LEVEL001
  6
Continuous
 62
     1
370
    15
100
AcDbLine
 10
176.59744199811
 20
220.61007048674
 30
0.0
 11
173.65668227324
 21
221.60912162064
 31
0.0
  0
MTEXT
  5
1EA
330
18
100
AcDbEntity
  8
LEVEL001
 62
     3
370
    20
100
AcDbMText
 10
162.37614755731
 20
225.39812261613
 30
0.0
 40
5.6568542494924
 41
0.0
 71
     7
 72
     1
  1
\A1;３
 73
     1
 44
1.0
  0
LINE
  5
1EB
330
18
100
AcDbEntity
  8
LEVEL001
  6
Continuous
 62
     1
370
    15
100
AcDbLine
 10
179.36974124035
 20
203.57115062537
 30
0.0
 11
153.76166548295
 21
203.57115062537
 31
0.0
  0
LINE
  5
1EC
330
18
100
AcDbEntity
  8
LEVEL001
  6
Continuous
 62
     1
370
    15
100
AcDbLine
 10
186.86974124035
 20
232.97115062537
 30
0.0
 11
153.76166548295
 21
232.97115062537
 31
0.0
  0
LINE
  5
1ED
330
18
100
AcDbEntity
  8
LEVEL001
  6
Continuous
 62
     1
370
    15
100
AcDbLine
 10
155.76166548295
 20
203.57115062537
 30
0.0
 11
155.76166548295
 21
218.27115062537
 31
0.0
  0
LINE
  5
1EE
330
18
100
AcDbEntity
  8
LEVEL001
  6
Continuous
 62
     1
370
    15
100
AcDbLine
 10
155.76166548295
 20
232.97115062537
 30
0.0
 11
155.76166548295
 21
218.27115062537
 31
0.0
  0
LINE
  5
1EF
330
18
100
AcDbEntity
  8
LEVEL001
  6
Continuous
 62
     1
370
    15
100
AcDbLine
 10
155.76166548295
 20
203.57115062537
 30
0.0
 11
156.56551306025
 21
206.57115062537
 31
0.0
  0
LINE
  5
1F0
330
18
100
AcDbEntity
  8
LEVEL001
  6
Continuous
 62
     1
370
    15
100
AcDbLine
 10
155.76166548295
 20
203.57115062537
 30
0.0
 11
154.95781790566
 21
206.57115062537
 31
0.0
  0
LINE
  5
1F1
330
18
100
AcDbEntity
  8
LEVEL001
  6
Continuous
 62
     1
370
    15
100
AcDbLine
 10
155.76166548295
 20
232.97115062537
 30
0.0
 11
154.95781790566
 21
229.97115062537
 31
0.0
  0
LINE
  5
1F2
330
18
100
AcDbEntity
  8
LEVEL001
  6
Continuous
 62
     1
370
    15
100
AcDbLine
 10
155.76166548295
 20
232.97115062537
 30
0.0
 11
156.56551306025
 21
229.97115062537
 31
0.0
  0
MTEXT
  5
1F3
330
18
100
AcDbEntity
  8
LEVEL001
 62
     3
370
    20
100
AcDbMText
 10
154.04737976867
 20
218.27115062537
 30
0.0
 40
4.0
 41
0.0
 71
     8
 72
     1
  1
\A1;(147)
 11
0.0
 21
1.0
 31
0.0
 73
     1
 44
1.0
  0
LINE
  5
1F4
330
18
100
AcDbEntity
  8
LEVEL001
  6
Continuous
 62
     1
370
    15
100
AcDbLine
 10
172.36974124035
 20
217.17115062537
 30
0.0
 11
172.36974124035
 21
246.4095780625
 31
0.0
  0
LINE
  5
1F5
330
18
100
AcDbEntity
  8
LEVEL001
  6
Continuous
 62
     1
370
    15
100
AcDbLine
 10
205.36974124035
 20
217.17115062537
 30
0.0
 11
205.36974124035
 21
246.4095780625
 31
0.0
  0
LINE
  5
1F6
330
18
100
AcDbEntity
  8
LEVEL001
  6
Continuous
 62
     1
370
    15
100
AcDbLine
 10
172.36974124035
 20
244.4095780625
 30
0.0
 11
188.86974124035
 21
244.4095780625
 31
0.0
  0
LINE
  5
1F7
330
18
100
AcDbEntity
  8
LEVEL001
  6
Continuous
 62
     1
370
    15
100
AcDbLine
 10
205.36974124035
 20
244.4095780625
 30
0.0
 11
188.86974124035
 21
244.4095780625
 31
0.0
  0
LINE
  5
1F8
330
18
100
AcDbEntity
  8
LEVEL001
  6
Continuous
 62
     1
370
    15
100
AcDbLine
 10
172.36974124035
 20
244.4095780625
 30
0.0
 11
175.36974124035
 21
243.60573048521
 31
0.0
  0
LINE
  5
1F9
330
18
100
AcDbEntity
  8
LEVEL001
  6
Continuous
 62
     1
370
    15
100
AcDbLine
 10
172.36974124035
 20
244.4095780625
 30
0.0
 11
175.36974124035
 21
245.21342563979
 31
0.0
  0
LINE
  5
1FA
330
18
100
AcDbEntity
  8
LEVEL001
  6
Continuous
 62
     1
370
    15
100
AcDbLine
 10
205.36974124035
 20
244.4095780625
 30
0.0
 11
202.36974124035
 21
245.21342563979
 31
0.0
  0
LINE
  5
1FB
330
18
100
AcDbEntity
  8
LEVEL001
  6
Continuous
 62
     1
370
    15
100
AcDbLine
 10
205.36974124035
 20
244.4095780625
 30
0.0
 11
202.36974124035
 21
243.60573048521
 31
0.0
  0
MTEXT
  5
1FC
330
18
100
AcDbEntity
  8
LEVEL001
 62
     3
370
    20
100
AcDbMText
 10
188.86974124035
 20
246.12386377679
 30
0.0
 40
4.0
 41
0.0
 71
     8
 72
     1
  1
\A1;%%c165
 73
     1
 44
1.0
  0
POLYLINE
  5
1FD
330
18
100
AcDbEntity
  8
LEVEL001
  6
Continuous
 62
     1
370
    15
100
AcDb2dPolyline
 66
     1
 10
0.0
 20
0.0
 30
0.0
  0
VERTEX
  5
1FE
330
1FD
100
AcDbEntity
  8
LEVEL001
  6
Continuous
 62
     1
100
AcDbVertex
100
AcDb2dVertex
 10
174.11974124035
 20
196.15
 30
0.0
  0
VERTEX
  5
1FF
330
1FD
100
AcDbEntity
  8
LEVEL001
  6
Continuous
 62
     1
100
AcDbVertex
100
AcDb2dVertex
 10
167.27801505946
 20
185.23955242935
 30
0.0
  0
VERTEX
  5
200
330
1FD
100
AcDbEntity
  8
LEVEL001
  6
Continuous
 62
     1
100
AcDbVertex
100
AcDb2dVertex
 10
149.30752147506
 20
185.23955242935
 30
0.0
  0
SEQEND
  5
201
330
1FD
100
AcDbEntity
  8
LEVEL001
  6
Continuous
 62
     1
  0
LINE
  5
202
330
18
100
AcDbEntity
  8
LEVEL001
  6
Continuous
 62
     1
370
    15
100
AcDbLine
 10
174.11974124035
 20
196.15
 30
0.0
 11
171.84492026667
 21
194.0354408343
 31
0.0
  0
LINE
  5
203
330
18
100
AcDbEntity
  8
LEVEL001
  6
Continuous
 62
     1
370
    15
100
AcDbLine
 10
174.11974124035
 20
196.15
 30
0.0
 11
173.20696807093
 21
193.18132755786
 31
0.0
  0
MTEXT
  5
204
102
{ACAD_REACTORS
330
203
102
}
330
18
100
AcDbEntity
  8
LEVEL001
 62
     3
370
    20
100
AcDbMText
 10
149.30752147506
 20
186.21751153301
 30
0.0
 40
4.0
 41
0.0
 71
     4
 72
     1
  1
\A1;%%c８ロープ\P　　１３ｍ
 73
     1
 44
1.0
  0
LINE
  5
205
330
18
100
AcDbEntity
  8
LEVEL001
  6
DASHDOT
 62
     1
370
    15
100
AcDbLine
 10
85.328723409755
 20
112.25860029282
 30
0.0
 11
90.793992201154
 21
112.25860029282
 31
0.0
  0
LINE
  5
206
330
18
100
AcDbEntity
  8
LEVEL001
  6
Continuous
 62
     3
370
    20
100
AcDbLine
 10
86.680806743088
 20
112.38360029282
 30
0.0
 11
86.843306743088
 21
112.38360029282
 31
0.0
  0
LINE
  5
207
330
18
100
AcDbEntity
  8
LEVEL001
  6
Continuous
 62
     3
370
    20
100
AcDbLine
 10
86.639924587735
 20
113.06496954871
 30
0.0
 11
86.680806743088
 21
112.38360029282
 31
0.0
  0
LINE
  5
208
330
18
100
AcDbEntity
  8
LEVEL001
  6
Continuous
 62
     3
370
    20
100
AcDbLine
 10
87.124556743088
 20
113.05860029282
 30
0.0
 11
87.124556743088
 21
112.25860029282
 31
0.0
  0
LINE
  5
209
330
18
100
AcDbEntity
  8
LEVEL001
  6
Continuous
 62
     3
370
    20
100
AcDbLine
 10
87.124556743088
 20
111.45860029282
 30
0.0
 11
87.124556743088
 21
112.25860029282
 31
0.0
  0
LINE
  5
20A
330
18
100
AcDbEntity
  8
LEVEL001
  6
Continuous
 62
     3
370
    20
100
AcDbLine
 10
87.262056743088
 20
113.75860029282
 30
0.0
 11
87.124556743088
 21
113.05860029282
 31
0.0
  0
LINE
  5
20B
330
18
100
AcDbEntity
  8
LEVEL001
  6
Continuous
 62
     3
370
    20
100
AcDbLine
 10
87.262056743088
 20
110.75860029282
 30
0.0
 11
87.124556743088
 21
111.45860029282
 31
0.0
  0
ARC
  5
20C
330
18
100
AcDbEntity
  8
LEVEL001
  6
Continuous
 62
     3
370
    20
100
AcDbCircle
 10
87.015865279332
 20
113.5642626454
 30
0.0
 40
0.625
100
AcDbArc
 50
180.0
 51
233.02223081456
  0
LINE
  5
20D
330
18
100
AcDbEntity
  8
LEVEL001
  6
HIDDEN
 62
     1
370
    15
100
AcDbLine
 10
87.199465730639
 20
110.20485029282
 30
0.0
 11
87.262056743088
 21
110.20485029282
 31
0.0
  0
LINE
  5
20E
330
18
100
AcDbEntity
  8
LEVEL001
  6
HIDDEN
 62
     1
370
    15
100
AcDbLine
 10
87.199465730639
 20
110.20485029282
 30
0.0
 11
87.199465730639
 21
110.14610029282
 31
0.0
  0
LINE
  5
20F
330
18
100
AcDbEntity
  8
LEVEL001
  6
HIDDEN
 62
     1
370
    15
100
AcDbLine
 10
87.199465730639
 20
110.42110029282
 30
0.0
 11
87.199465730639
 21
110.36235029282
 31
0.0
  0
LINE
  5
210
330
18
100
AcDbEntity
  8
LEVEL001
  6
HIDDEN
 62
     1
370
    15
100
AcDbLine
 10
87.199465730639
 20
110.36235029282
 30
0.0
 11
87.262056743088
 21
110.36235029282
 31
0.0
  0
LINE
  5
211
330
18
100
AcDbEntity
  8
LEVEL001
  6
Continuous
 62
     3
370
    20
100
AcDbLine
 10
86.387349133498
 20
114.00658364658
 30
0.0
 11
86.390865279332
 21
113.5642626454
 31
0.0
  0
LINE
  5
212
330
18
100
AcDbEntity
  8
LEVEL001
  6
DOT
 62
     1
370
    15
100
AcDbLine
 10
87.174465730639
 20
110.15235029282
 30
0.0
 11
87.199465730639
 21
110.15235029282
 31
0.0
  0
LINE
  5
213
330
18
100
AcDbEntity
  8
LEVEL001
  6
DOT
 62
     1
370
    15
100
AcDbLine
 10
87.199465730639
 20
110.41485029282
 30
0.0
 11
87.199465730639
 21
110.15235029282
 31
0.0
  0
LINE
  5
214
330
18
100
AcDbEntity
  8
LEVEL001
  6
DOT
 62
     1
370
    15
100
AcDbLine
 10
87.174465730639
 20
110.41485029282
 30
0.0
 11
87.199465730639
 21
110.41485029282
 31
0.0
  0
LINE
  5
215
330
18
100
AcDbEntity
  8
LEVEL001
  6
Continuous
 62
     3
370
    20
100
AcDbLine
 10
87.099465730639
 20
110.22735029282
 30
0.0
 11
87.099465730639
 21
110.33985029282
 31
0.0
  0
LINE
  5
216
330
18
100
AcDbEntity
  8
LEVEL001
  6
Continuous
 62
     3
370
    20
100
AcDbLine
 10
87.262056743088
 20
109.99610029282
 30
0.0
 11
87.262056743088
 21
110.75860029282
 31
0.0
  0
ARC
  5
217
330
18
100
AcDbEntity
  8
LEVEL001
  6
Continuous
 62
     3
370
    20
100
AcDbCircle
 10
87.875992473488
 20
110.68762993361
 30
0.0
 40
1.5
100
AcDbArc
 50
142.92793628941
 51
187.12650048794
  0
LINE
  5
218
330
18
100
AcDbEntity
  8
LEVEL001
  6
HIDDEN
 62
     1
370
    15
100
AcDbLine
 10
87.199465730639
 20
114.31235029282
 30
0.0
 11
87.262056743088
 21
114.31235029282
 31
0.0
  0
LINE
  5
219
330
18
100
AcDbEntity
  8
LEVEL001
  6
HIDDEN
 62
     1
370
    15
100
AcDbLine
 10
87.199465730639
 20
114.31235029282
 30
0.0
 11
87.199465730639
 21
114.37110029282
 31
0.0
  0
LINE
  5
21A
330
18
100
AcDbEntity
  8
LEVEL001
  6
HIDDEN
 62
     1
370
    15
100
AcDbLine
 10
87.199465730639
 20
114.09610029282
 30
0.0
 11
87.199465730639
 21
114.15485029282
 31
0.0
  0
LINE
  5
21B
330
18
100
AcDbEntity
  8
LEVEL001
  6
HIDDEN
 62
     1
370
    15
100
AcDbLine
 10
87.199465730639
 20
114.15485029282
 30
0.0
 11
87.262056743088
 21
114.15485029282
 31
0.0
  0
LINE
  5
21C
330
18
100
AcDbEntity
  8
LEVEL001
  6
DOT
 62
     1
370
    15
100
AcDbLine
 10
87.174465730639
 20
114.36485029282
 30
0.0
 11
87.199465730639
 21
114.36485029282
 31
0.0
  0
LINE
  5
21D
330
18
100
AcDbEntity
  8
LEVEL001
  6
DOT
 62
     1
370
    15
100
AcDbLine
 10
87.199465730639
 20
114.10235029282
 30
0.0
 11
87.199465730639
 21
114.36485029282
 31
0.0
  0
LINE
  5
21E
330
18
100
AcDbEntity
  8
LEVEL001
  6
DOT
 62
     1
370
    15
100
AcDbLine
 10
87.174465730639
 20
114.10235029282
 30
0.0
 11
87.199465730639
 21
114.10235029282
 31
0.0
  0
LINE
  5
21F
330
18
100
AcDbEntity
  8
LEVEL001
  6
Continuous
 62
     3
370
    20
100
AcDbLine
 10
87.099465730639
 20
114.28985029282
 30
0.0
 11
87.099465730639
 21
114.17735029282
 31
0.0
  0
LINE
  5
220
330
18
100
AcDbEntity
  8
LEVEL001
  6
Continuous
 62
     3
370
    20
100
AcDbLine
 10
87.262056743088
 20
114.52110029282
 30
0.0
 11
87.262056743088
 21
113.75860029282
 31
0.0
  0
LWPOLYLINE
  5
221
330
18
100
AcDbEntity
  8
LEVEL001
  6
Continuous
 62
     3
370
    20
100
AcDbPolyline
 90
       65
 70
     0
 43
0.0
 10
86.28106712128
 20
113.88739105413
 10
86.278553807408
 20
113.83046213667
 10
86.276049065681
 20
113.77358038379
 10
86.273561468246
 20
113.71679296009
 10
86.27109958725
 20
113.66014703013
 10
86.268671994837
 20
113.60368975853
 10
86.266287263155
 20
113.54746830984
 10
86.26395396435
 20
113.49152984867
 10
86.261680670567
 20
113.4359215396
 10
86.259475953953
 20
113.38069054722
 10
86.257348386655
 20
113.3258840361
 10
86.255306540817
 20
113.27154917083
 10
86.253358988587
 20
113.21773311601
 10
86.25151430211
 20
113.16448303621
 10
86.249781053533
 20
113.11184609602
 10
86.248167815001
 20
113.05986946003
 10
86.246683158662
 20
113.00860029282
 10
86.245333211455
 20
112.95807003744
 10
86.244114319505
 20
112.90824725085
 10
86.243020383729
 20
112.85908476846
 10
86.242045305045
 20
112.81053542568
 10
86.24118298437
 20
112.76255205792
 10
86.240427322623
 20
112.7150875006
 10
86.239772220721
 20
112.66809458914
 10
86.239211579583
 20
112.62152615894
 10
86.238739300125
 20
112.57533504543
 10
86.238349283266
 20
112.52947408402
 10
86.238035429925
 20
112.48389611012
 10
86.237791641017
 20
112.43855395914
 10
86.237611817463
 20
112.39340046651
 10
86.237489860178
 20
112.34838846764
 10
86.237419670082
 20
112.30347079793
 10
86.237395148092
 20
112.25860029282
 10
86.237412226829
 20
112.2137297877
 10
86.237474965733
 20
112.16881211799
 10
86.237589455943
 20
112.12380011912
 10
86.237761788603
 20
112.07864662649
 10
86.237998054854
 20
112.03330447551
 10
86.238304345837
 20
111.98772650161
 10
86.238686752695
 20
111.9418655402
 10
86.239151366569
 20
111.89567442669
 10
86.239704278601
 20
111.84910599649
 10
86.240351579933
 20
111.80211308503
 10
86.241099361707
 20
111.75464852771
 10
86.241953715064
 20
111.70666515996
 10
86.242920731146
 20
111.65811581717
 10
86.244006501095
 20
111.60895333478
 10
86.245217116053
 20
111.55913054819
 10
86.246558667161
 20
111.50860029282
 10
86.248034803004
 20
111.45733112561
 10
86.249639401933
 20
111.40535448961
 10
86.251363899743
 20
111.35271754943
 10
86.253199732227
 20
111.29946746963
 10
86.255138335181
 20
111.2456514148
 10
86.257171144399
 20
111.19131654954
 10
86.259289595674
 20
111.13651003842
 10
86.261485124801
 20
111.08127904603
 10
86.263749167574
 20
111.02567073696
 10
86.266073159788
 20
110.96973227579
 10
86.268448537236
 20
110.91351082711
 10
86.270866735713
 20
110.8570535555
 10
86.273319191013
 20
110.80040762555
 10
86.275797338931
 20
110.74362020185
 10
86.27829261526
 20
110.68673844897
 10
86.280796455794
 20
110.62980953151
  0
LWPOLYLINE
  5
222
330
18
100
AcDbEntity
  8
LEVEL001
  6
Continuous
 62
     3
370
    20
100
AcDbPolyline
 90
       65
 70
     0
 43
0.0
 10
86.380728716276
 20
113.88739105413
 10
86.378220149774
 20
113.83037095176
 10
86.375720043714
 20
113.7734001595
 10
86.37323685854
 20
113.71652798747
 10
86.370779054697
 20
113.65980374577
 10
86.368355092626
 20
113.60327674452
 10
86.365973432771
 20
113.54699629384
 10
86.363642535577
 20
113.49101170384
 10
86.361370861485
 20
113.43537228462
 10
86.359166870939
 20
113.3801273463
 10
86.357039024384
 20
113.325326199
 10
86.354995782261
 20
113.27101815283
 10
86.353045605014
 20
113.2172525179
 10
86.351196953087
 20
113.16407860432
 10
86.349458286923
 20
113.1115457222
 10
86.347838066966
 20
113.05970318166
 10
86.346344753658
 20
113.00860029282
 10
86.344984473941
 20
112.95826849872
 10
86.34375402075
 20
112.9086677742
 10
86.342647853515
 20
112.85974022704
 10
86.341660431669
 20
112.81142796502
 10
86.340786214645
 20
112.76367309592
 10
86.340019661873
 20
112.71641772751
 10
86.339355232786
 20
112.66960396758
 10
86.338787386815
 20
112.62317392389
 10
86.338310583394
 20
112.57706970424
 10
86.337919281953
 20
112.53123341639
 10
86.337607941924
 20
112.48560716812
 10
86.33737102274
 20
112.44013306722
 10
86.337202983833
 20
112.39475322146
 10
86.337098284634
 20
112.34940973862
 10
86.337051384575
 20
112.30404472648
 10
86.337056743088
 20
112.25860029282
 10
86.337110404498
 20
112.21302712751
 10
86.337214752701
 20
112.1673102489
 10
86.337373756484
 20
112.1214432574
 10
86.337591384636
 20
112.07541975346
 10
86.337871605946
 20
112.0292333375
 10
86.3382183892
 20
111.98287760996
 10
86.338635703189
 20
111.93634617127
 10
86.339127516699
 20
111.88963262187
 10
86.339697798519
 20
111.84273056218
 10
86.340350517438
 20
111.79563359265
 10
86.341089642243
 20
111.74833531369
 10
86.341919141723
 20
111.70082932575
 10
86.342842984666
 20
111.65310922926
 10
86.343865139861
 20
111.60516862466
 10
86.344989576095
 20
111.55700111236
 10
86.346220262157
 20
111.50860029282
 10
86.34755935726
 20
111.45996332999
 10
86.349001782316
 20
111.41110164202
 10
86.350540648661
 20
111.36203021058
 10
86.352169067632
 20
111.31276401736
 10
86.353880150564
 20
111.26331804401
 10
86.355667008796
 20
111.21370727223
 10
86.357522753662
 20
111.16394668369
 10
86.3594404965
 20
111.11405126006
 10
86.361413348646
 20
111.06403598302
 10
86.363434421437
 20
111.01391583424
 10
86.365496826208
 20
110.96370579541
 10
86.367593674298
 20
110.9134208482
 10
86.369718077041
 20
110.86307597428
 10
86.371863145775
 20
110.81268615533
 10
86.374021991836
 20
110.76226637303
 10
86.37618772656
 20
110.71183160906
  0
POINT
  5
223
330
18
100
AcDbEntity
  8
LEVEL001
 62
     2
100
AcDbPoint
 10
87.262056743088
 20
112.25860029282
 30
0.0
  0
ARC
  5
224
330
18
100
AcDbEntity
  8
LEVEL001
  6
Continuous
 62
     3
370
    20
100
AcDbCircle
 10
86.337687538499
 20
110.5048095315
 30
0.0
 40
0.05
100
AcDbArc
 50
189.8180243969
 51
356.24988759818
  0
ARC
  5
225
330
18
100
AcDbEntity
  8
LEVEL001
  6
Continuous
 62
     3
370
    20
100
AcDbCircle
 10
86.337687538502
 20
114.01239105413
 30
0.0
 40
0.05
100
AcDbArc
 50
353.33014694025
 51
170.18197560336
  0
LWPOLYLINE
  5
226
330
18
100
AcDbEntity
  8
LEVEL001
  6
Continuous
 62
     3
370
    20
100
AcDbPolyline
 90
      161
 70
     0
 43
0.0
 10
86.288419823284
 20
114.0209170284
 10
86.286066296423
 20
114.00640190149
 10
86.283708163351
 20
113.99184254707
 10
86.281340817859
 20
113.97719473764
 10
86.278959653738
 20
113.96241424568
 10
86.276560064778
 20
113.9474568437
 10
86.274137444768
 20
113.93227830418
 10
86.2716871875
 20
113.91683439961
 10
86.269204686764
 20
113.90108090249
 10
86.26668533635
 20
113.88497358532
 10
86.264124530048
 20
113.86846822058
 10
86.26151766165
 20
113.85152058076
 10
86.258860124944
 20
113.83408643836
 10
86.256147313722
 20
113.81612156588
 10
86.253374621774
 20
113.7975817358
 10
86.25053744289
 20
113.77842272061
 10
86.247631170861
 20
113.75860029282
 10
86.244653761449
 20
113.73808694185
 10
86.24161341831
 20
113.71692202493
 10
86.238520907071
 20
113.69516161621
 10
86.235386993358
 20
113.67286178986
 10
86.232222442799
 20
113.65007862004
 10
86.229038021021
 20
113.6268681809
 10
86.22584449365
 20
113.60328654661
 10
86.222652626315
 20
113.57938979133
 10
86.219473184642
 20
113.55523398923
 10
86.216316934259
 20
113.53087521445
 10
86.213194640792
 20
113.50636954117
 10
86.210117069868
 20
113.48177304355
 10
86.207094987115
 20
113.45714179574
 10
86.20413915816
 20
113.43253187191
 10
86.20126034863
 20
113.40799934621
 10
86.198469324151
 20
113.38360029282
 10
86.195774420791
 20
113.35937893923
 10
86.193174256369
 20
113.33533212634
 10
86.190665019146
 20
113.31144484838
 10
86.18824289738
 20
113.2877020996
 10
86.185904079333
 20
113.26408887424
 10
86.183644753263
 20
113.24059016653
 10
86.18146110743
 20
113.21719097071
 10
86.179349330095
 20
113.19387628102
 10
86.177305609516
 20
113.1706310917
 10
86.175326133954
 20
113.14744039699
 10
86.173407091669
 20
113.12428919112
 10
86.171544670919
 20
113.10116246833
 10
86.169735059965
 20
113.07804522287
 10
86.167974447067
 20
113.05492244897
 10
86.166259020484
 20
113.03177914088
 10
86.164584968476
 20
113.00860029282
 10
86.162949344936
 20
112.98537405814
 10
86.161352666286
 20
112.96210122663
 10
86.159796314585
 20
112.93878574716
 10
86.158281671887
 20
112.91543156863
 10
86.156810120249
 20
112.89204263991
 10
86.155383041727
 20
112.86862290989
 10
86.154001818378
 20
112.84517632745
 10
86.152667832257
 20
112.82170684149
 10
86.151382465422
 20
112.79821840088
 10
86.150147099928
 20
112.7747149545
 10
86.148963117831
 20
112.75120045125
 10
86.147831901188
 20
112.72767884001
 10
86.146754832056
 20
112.70415406966
 10
86.14573329249
 20
112.68063008909
 10
86.144768664546
 20
112.65711084718
 10
86.143862330281
 20
112.63360029282
 10
86.143015339736
 20
112.61010158511
 10
86.142227414886
 20
112.58661472405
 10
86.141497945694
 20
112.56313891987
 10
86.140826322118
 20
112.53967338279
 10
86.140211934121
 20
112.51621732303
 10
86.139654171662
 20
112.49276995082
 10
86.139152424704
 20
112.46933047638
 10
86.138706083206
 20
112.44589810993
 10
86.138314537129
 20
112.42247206169
 10
86.137977176434
 20
112.39905154189
 10
86.137693391081
 20
112.37563576076
 10
86.137462571033
 20
112.35222392851
 10
86.137284106248
 20
112.32881525537
 10
86.137157386689
 20
112.30540895156
 10
86.137081802315
 20
112.2820042273
 10
86.137056743088
 20
112.25860029282
 10
86.137081802315
 20
112.23519635833
 10
86.137157386688
 20
112.21179163408
 10
86.137284106247
 20
112.18838533027
 10
86.137462571031
 20
112.16497665712
 10
86.13769339108
 20
112.14156482487
 10
86.137977176432
 20
112.11814904374
 10
86.138314537127
 20
112.09472852394
 10
86.138706083204
 20
112.07130247571
 10
86.139152424702
 20
112.04787010926
 10
86.139654171661
 20
112.02443063481
 10
86.140211934119
 20
112.0009832626
 10
86.140826322117
 20
111.97752720285
 10
86.141497945692
 20
111.95406166576
 10
86.142227414885
 20
111.93058586158
 10
86.143015339735
 20
111.90709900053
 10
86.143862330281
 20
111.88360029282
 10
86.144768664546
 20
111.86008973845
 10
86.145733292489
 20
111.83657049654
 10
86.146754832056
 20
111.81304651597
 10
86.147831901189
 20
111.78952174562
 10
86.148963117831
 20
111.76600013438
 10
86.150147099928
 20
111.74248563113
 10
86.151382465422
 20
111.71898218476
 10
86.152667832258
 20
111.69549374414
 10
86.154001818378
 20
111.67202425818
 10
86.155383041727
 20
111.64857767574
 10
86.156810120248
 20
111.62515794573
 10
86.158281671886
 20
111.60176901701
 10
86.159796314584
 20
111.57841483847
 10
86.161352666285
 20
111.555099359
 10
86.162949344933
 20
111.53182652749
 10
86.164584968473
 20
111.50860029282
 10
86.16625902048
 20
111.48542144476
 10
86.167974447063
 20
111.46227813666
 10
86.16973505996
 20
111.43915536276
 10
86.171544670913
 20
111.4160381173
 10
86.173407091663
 20
111.39291139452
 10
86.175326133948
 20
111.36976018865
 10
86.17730560951
 20
111.34656949393
 10
86.179349330088
 20
111.32332430461
 10
86.181461107424
 20
111.30000961492
 10
86.183644753256
 20
111.2766104191
 10
86.185904079327
 20
111.25311171139
 10
86.188242897375
 20
111.22949848603
 10
86.190665019141
 20
111.20575573725
 10
86.193174256365
 20
111.1818684593
 10
86.195774420788
 20
111.15782164641
 10
86.198469324149
 20
111.13360029282
 10
86.201260348629
 20
111.10920123942
 10
86.204139158161
 20
111.08466871372
 10
86.207094987117
 20
111.06005878989
 10
86.210117069871
 20
111.03542754208
 10
86.213194640796
 20
111.01083104446
 10
86.216316934264
 20
110.98632537118
 10
86.219473184648
 20
110.9619665964
 10
86.222652626321
 20
110.9378107943
 10
86.225844493657
 20
110.91391403902
 10
86.229038021027
 20
110.89033240473
 10
86.232222442805
 20
110.8671219656
 10
86.235386993364
 20
110.84433879577
 10
86.238520907076
 20
110.82203896942
 10
86.241613418314
 20
110.8002785607
 10
86.244653761452
 20
110.77911364378
 10
86.247631170862
 20
110.75860029282
 10
86.250537442889
 20
110.73877786502
 10
86.253374621771
 20
110.71961884984
 10
86.256147313717
 20
110.70107901976
 10
86.258860124938
 20
110.68311414728
 10
86.261517661642
 20
110.66568000488
 10
86.264124530039
 20
110.64873236506
 10
86.266685336339
 20
110.63222700032
 10
86.269204686753
 20
110.61611968315
 10
86.271687187488
 20
110.60036618603
 10
86.274137444756
 20
110.58492228146
 10
86.276560064766
 20
110.56974374194
 10
86.278959653727
 20
110.55478633995
 10
86.281340817849
 20
110.540005848
 10
86.283708163343
 20
110.52535803856
 10
86.286066296416
 20
110.51079868415
 10
86.288419823281
 20
110.49628355723
  0
ARC
  5
227
330
18
100
AcDbEntity
  8
LEVEL001
  6
Continuous
 62
     3
370
    20
100
AcDbCircle
 10
86.758963348672
 20
111.53157657547
 30
0.0
 40
0.1
100
AcDbArc
 50
21.936801848494
 51
142.92793628941
  0
LINE
  5
228
330
18
100
AcDbEntity
  8
LEVEL001
  6
Continuous
 62
     3
370
    20
100
AcDbLine
 10
86.881793952464
 20
113.02505378241
 30
0.0
 11
86.843306743088
 21
112.38360029282
 31
0.0
  0
LINE
  5
229
330
18
100
AcDbEntity
  8
LEVEL001
  6
HIDDEN
 62
     1
370
    15
100
AcDbLine
 10
87.158418823101
 20
114.37110029282
 30
0.0
 11
87.199465730639
 21
114.37110029282
 31
0.0
  0
ARC
  5
22A
330
18
100
AcDbEntity
  8
LEVEL001
  6
DOT
 62
     1
370
    15
100
AcDbCircle
 10
87.174465730638
 20
114.28985029282
 30
0.0
 40
0.075
100
AcDbArc
 50
89.999999999453
 51
102.62388350048
  0
ARC
  5
22B
330
18
100
AcDbEntity
  8
LEVEL001
  6
DOT
 62
     1
370
    15
100
AcDbCircle
 10
87.174465730641
 20
114.17735029282
 30
0.0
 40
0.075
100
AcDbArc
 50
242.30847316521
 51
269.9999999987801
  0
LINE
  5
22C
330
18
100
AcDbEntity
  8
LEVEL001
  6
HIDDEN
 62
     1
370
    15
100
AcDbLine
 10
87.138058528049
 20
114.09610029282
 30
0.0
 11
87.199465730639
 21
114.09610029282
 31
0.0
  0
ARC
  5
22D
330
18
100
AcDbEntity
  8
LEVEL001
  6
Continuous
 62
     3
370
    20
100
AcDbCircle
 10
87.174465730639
 20
114.17735029282
 30
0.0
 40
0.075
100
AcDbArc
 50
180.00000000063
 51
242.30847316662
  0
ARC
  5
22E
330
18
100
AcDbEntity
  8
LEVEL001
  6
Continuous
 62
     3
370
    20
100
AcDbCircle
 10
87.174465730639
 20
114.28985029282
 30
0.0
 40
0.075
100
AcDbArc
 50
102.62388350101
 51
180.00000000005
  0
LINE
  5
22F
330
18
100
AcDbEntity
  8
LEVEL001
  6
HIDDEN
 62
     1
370
    15
100
AcDbLine
 10
87.138058528049
 20
110.42110029282
 30
0.0
 11
87.199465730639
 21
110.42110029282
 31
0.0
  0
ARC
  5
230
330
18
100
AcDbEntity
  8
LEVEL001
  6
DOT
 62
     1
370
    15
100
AcDbCircle
 10
87.174465730641
 20
110.33985029282
 30
0.0
 40
0.075
100
AcDbArc
 50
90.00000000134601
 51
117.69152683492
  0
ARC
  5
231
330
18
100
AcDbEntity
  8
LEVEL001
  6
DOT
 62
     1
370
    15
100
AcDbCircle
 10
87.174465730639
 20
110.22735029282
 30
0.0
 40
0.075
100
AcDbArc
 50
257.37611649943
 51
270.00000000048
  0
LINE
  5
232
330
18
100
AcDbEntity
  8
LEVEL001
  6
HIDDEN
 62
     1
370
    15
100
AcDbLine
 10
87.158418823101
 20
110.14610029282
 30
0.0
 11
87.199465730639
 21
110.14610029282
 31
0.0
  0
ARC
  5
233
330
18
100
AcDbEntity
  8
LEVEL001
  6
Continuous
 62
     3
370
    20
100
AcDbCircle
 10
87.174465730639
 20
110.22735029282
 30
0.0
 40
0.075
100
AcDbArc
 50
179.99999999995
 51
257.37611649899
  0
ARC
  5
234
330
18
100
AcDbEntity
  8
LEVEL001
  6
Continuous
 62
     3
370
    20
100
AcDbCircle
 10
87.174465730639
 20
110.33985029282
 30
0.0
 40
0.075
100
AcDbArc
 50
117.69152683338
 51
179.99999999937
  0
ARC
  5
235
330
18
100
AcDbEntity
  8
LEVEL001
  6
Continuous
 62
     3
370
    20
100
AcDbCircle
 10
82.874653057444
 20
114.55000561688
 30
0.0
 40
4.2875
100
AcDbArc
 50
339.16524836755
 51
359.6181751394
  0
ARC
  5
236
330
18
100
AcDbEntity
  8
LEVEL001
  6
Continuous
 62
     3
370
    20
100
AcDbCircle
 10
82.874653057444
 20
109.96719496875
 30
0.0
 40
4.2875
100
AcDbArc
 50
0.3818248606017701
 51
21.936801848487
  0
ARC
  5
237
330
18
100
AcDbEntity
  8
LEVEL001
  6
Continuous
 62
     3
370
    20
100
AcDbCircle
 10
87.212056743088
 20
109.99610029282
 30
0.0
 40
0.05
100
AcDbArc
 50
269.99999999993
 51
0.0
  0
ARC
  5
238
330
18
100
AcDbEntity
  8
LEVEL001
  6
Continuous
 62
     3
370
    20
100
AcDbCircle
 10
87.212056743088
 20
109.99610029282
 30
0.0
 40
0.05
100
AcDbArc
 50
180.38182486097
 51
269.99999999995
  0
ARC
  5
239
330
18
100
AcDbEntity
  8
LEVEL001
  6
Continuous
 62
     3
370
    20
100
AcDbCircle
 10
87.212056743088
 20
114.52110029282
 30
0.0
 40
0.05
100
AcDbArc
 50
0.0000000003126612
 51
90.00000000006499
  0
ARC
  5
23A
330
18
100
AcDbEntity
  8
LEVEL001
  6
Continuous
 62
     3
370
    20
100
AcDbCircle
 10
87.212056743088
 20
114.52110029282
 30
0.0
 40
0.05
100
AcDbArc
 50
90.00000000006499
 51
179.61817513911
  0
LWPOLYLINE
  5
23B
330
18
100
AcDbEntity
  8
LEVEL001
  6
DOT
 62
     1
370
    15
100
AcDbPolyline
 90
        4
 70
     0
 43
0.0
 10
87.199465730639
 20
110.20860029282
 10
87.599465730639
 20
110.20860029282
 10
87.599465730639
 20
110.35860029282
 10
87.199465730636
 20
110.35860029282
  0
LINE
  5
23C
330
18
100
AcDbEntity
  8
LEVEL001
  6
DASHDOT
 62
     1
370
    15
100
AcDbLine
 10
87.034960955888
 20
110.28360029282
 30
0.0
 11
87.665562511256
 21
110.28360029282
 31
0.0
  0
LWPOLYLINE
  5
23D
330
18
100
AcDbEntity
  8
LEVEL001
  6
DOT
 62
     1
370
    15
100
AcDbPolyline
 90
        4
 70
     0
 43
0.0
 10
87.199465730639
 20
114.30860029281
 10
87.599465730639
 20
114.30860029281
 10
87.599465730639
 20
114.15860029281
 10
87.199465730636
 20
114.15860029281
  0
LINE
  5
23E
330
18
100
AcDbEntity
  8
LEVEL001
  6
DASHDOT
 62
     1
370
    15
100
AcDbLine
 10
87.034960955888
 20
114.23360029282
 30
0.0
 11
87.665562511256
 21
114.23360029282
 31
0.0
  0
LINE
  5
23F
330
18
100
AcDbEntity
  8
LEVEL001
  6
Continuous
 62
     3
370
    20
100
AcDbLine
 10
87.555806743088
 20
258.80888905189
 30
0.0
 11
87.555806743088
 21
257.07110029282
 31
0.0
  0
LINE
  5
240
330
18
100
AcDbEntity
  8
LEVEL001
  6
Continuous
 62
     3
370
    20
100
AcDbLine
 10
87.755806743088
 20
258.76724143105
 30
0.0
 11
87.755806743088
 21
257.07110029282
 31
0.0
  0
LINE
  5
241
330
18
100
AcDbEntity
  8
LEVEL001
  6
Continuous
 62
     3
370
    20
100
AcDbLine
 10
86.918306743088
 20
259.2678409733
 30
0.0
 11
86.918306743088
 21
257.07110029282
 31
0.0
  0
LINE
  5
242
330
18
100
AcDbEntity
  8
LEVEL001
  6
Continuous
 62
     3
370
    20
100
AcDbLine
 10
87.118306743088
 20
259.04774990033
 30
0.0
 11
87.118306743088
 21
257.07110029282
 31
0.0
  0
ARC
  5
243
330
18
100
AcDbEntity
  8
LEVEL001
  6
Continuous
 62
     3
370
    20
100
AcDbCircle
 10
86.968306743088
 20
257.15770283319
 30
0.0
 40
0.1
100
AcDbArc
 50
240.0
 51
300.0
  0
ARC
  5
244
330
18
100
AcDbEntity
  8
LEVEL001
  6
Continuous
 62
     3
370
    20
100
AcDbCircle
 10
87.068306743088
 20
257.15770283319
 30
0.0
 40
0.10000000000001
100
AcDbArc
 50
240.0
 51
300.0
  0
ARC
  5
245
330
18
100
AcDbEntity
  8
LEVEL001
  6
Continuous
 62
     3
370
    20
100
AcDbCircle
 10
87.068306743088
 20
256.98449775244
 30
0.0
 40
0.10000000000001
100
AcDbArc
 50
59.99999999999701
 51
120.0
  0
ARC
  5
246
330
18
100
AcDbEntity
  8
LEVEL001
  6
Continuous
 62
     3
370
    20
100
AcDbCircle
 10
87.605806743088
 20
257.15770283319
 30
0.0
 40
0.1
100
AcDbArc
 50
240.0
 51
299.99999999997
  0
ARC
  5
247
330
18
100
AcDbEntity
  8
LEVEL001
  6
Continuous
 62
     3
370
    20
100
AcDbCircle
 10
87.705806743088
 20
257.15770283319
 30
0.0
 40
0.10000000000001
100
AcDbArc
 50
240.0
 51
300.0
  0
ARC
  5
248
330
18
100
AcDbEntity
  8
LEVEL001
  6
Continuous
 62
     3
370
    20
100
AcDbCircle
 10
87.705806743088
 20
256.98449775244
 30
0.0
 40
0.10000000000001
100
AcDbArc
 50
59.99999999999701
 51
120.0
  0
ARC
  5
249
330
18
100
AcDbEntity
  8
LEVEL001
  6
Continuous
 62
     3
370
    20
100
AcDbCircle
 10
89.624556743088
 20
259.95860029282
 30
0.0
 40
1.2
100
AcDbArc
 50
270.0
 51
0.0
  0
LINE
  5
24A
330
18
100
AcDbEntity
  8
LEVEL001
  6
Continuous
 62
     3
370
    20
100
AcDbLine
 10
90.824556743088
 20
259.95860029282
 30
0.0
 11
90.784556743088
 21
259.95860029282
 31
0.0
  0
LINE
  5
24B
330
18
100
AcDbEntity
  8
LEVEL001
  6
Continuous
 62
     3
370
    20
100
AcDbLine
 10
90.784556743088
 20
259.95860029282
 30
0.0
 11
88.762056743088
 21
259.95860029282
 31
0.0
  0
LINE
  5
24C
330
18
100
AcDbEntity
  8
LEVEL001
  6
Continuous
 62
     3
370
    20
100
AcDbLine
 10
89.624556743088
 20
258.75860029282
 30
0.0
 11
88.762056743088
 21
258.75860029282
 31
0.0
  0
ARC
  5
24D
330
18
100
AcDbEntity
  8
LEVEL001
  6
Continuous
 62
     3
370
    20
100
AcDbCircle
 10
87.899556743088
 20
259.95860029282
 30
0.0
 40
1.2
100
AcDbArc
 50
180.0
 51
270.0
  0
LINE
  5
24E
330
18
100
AcDbEntity
  8
LEVEL001
  6
Continuous
 62
     3
370
    20
100
AcDbLine
 10
86.699556743088
 20
259.95860029282
 30
0.0
 11
86.739556743088
 21
259.95860029282
 31
0.0
  0
LINE
  5
24F
330
18
100
AcDbEntity
  8
LEVEL001
  6
Continuous
 62
     3
370
    20
100
AcDbLine
 10
86.739556743088
 20
259.95860029282
 30
0.0
 11
88.762056743088
 21
259.95860029282
 31
0.0
  0
LINE
  5
250
330
18
100
AcDbEntity
  8
LEVEL001
  6
Continuous
 62
     3
370
    20
100
AcDbLine
 10
87.899556743088
 20
258.75860029282
 30
0.0
 11
88.762056743088
 21
258.75860029282
 31
0.0
  0
CIRCLE
  5
251
330
18
100
AcDbEntity
  8
LEVEL001
  6
Continuous
 62
     3
370
    20
100
AcDbCircle
 10
88.762056743088
 20
260.1463813766
 30
0.0
 40
0.0625
  0
LINE
  5
252
330
18
100
AcDbEntity
  8
LEVEL001
  6
Continuous
 62
     3
370
    20
100
AcDbLine
 10
86.699556743088
 20
259.95860029282
 30
0.0
 11
90.824556743088
 21
259.95860029282
 31
0.0
  0
LINE
  5
253
330
18
100
AcDbEntity
  8
LEVEL001
  6
Continuous
 62
     3
370
    20
100
AcDbLine
 10
90.824556743088
 20
259.95860029282
 30
0.0
 11
90.815946759779
 21
260.42977014492
 31
0.0
  0
ARC
  5
254
330
18
100
AcDbEntity
  8
LEVEL001
  6
Continuous
 62
     3
370
    20
100
AcDbCircle
 10
90.316030220262
 20
260.42063485529
 30
0.0
 40
0.5
100
AcDbArc
 50
1.0468853298501
 51
11.7962052684
  0
LINE
  5
255
330
18
100
AcDbEntity
  8
LEVEL001
  6
Continuous
 62
     3
370
    20
100
AcDbLine
 10
86.699556743088
 20
259.95860029282
 30
0.0
 11
86.708166726395
 21
260.42977014491
 31
0.0
  0
ARC
  5
256
330
18
100
AcDbEntity
  8
LEVEL001
  6
Continuous
 62
     3
370
    20
100
AcDbCircle
 10
87.208083265913
 20
260.42063485529
 30
0.0
 40
0.5
100
AcDbArc
 50
168.20379473186
 51
178.95311467032
  0
ARC
  5
257
330
18
100
AcDbEntity
  8
LEVEL001
  6
Continuous
 62
     3
370
    20
100
AcDbCircle
 10
88.762056743088
 20
260.09610029282
 30
0.0
 40
2.0875
100
AcDbArc
 50
11.796205268401
 51
168.20379473185
  0
LWPOLYLINE
  5
258
330
18
100
AcDbEntity
  8
LEVEL001
  6
Continuous
 62
     3
370
    20
100
AcDbPolyline
 90
        4
 70
     1
 43
0.0
 10
87.837056743088
 20
258.75860029282
 10
87.837056743088
 20
258.50860029282
 10
89.687056743088
 20
258.50860029282
 10
89.687056743088
 20
258.75860029282
  0
POINT
  5
259
330
18
100
AcDbEntity
  8
LEVEL001
 62
     3
100
AcDbPoint
 10
88.762056743088
 20
258.50860029282
 30
0.0
  0
LINE
  5
25A
330
18
100
AcDbEntity
  8
LEVEL001
  6
Continuous
 62
     3
370
    20
100
AcDbLine
 10
79.999556743088
 20
83.508600292816
 30
0.0
 11
81.255806743088
 21
81.332711465807
 31
0.0
  0
LINE
  5
25B
330
18
100
AcDbEntity
  8
LEVEL001
  6
Continuous
 62
     3
370
    20
100
AcDbLine
 10
80.637056743088
 20
80.261005028624
 30
0.0
 11
82.512056743088
 21
83.508600292816
 31
0.0
  0
LINE
  5
25C
330
18
100
AcDbEntity
  8
LEVEL001
  6
Continuous
 62
     3
370
    20
100
AcDbLine
 10
81.237056743088
 20
83.508600292816
 30
0.0
 11
81.874556743088
 21
82.40441790299
 31
0.0
  0
LINE
  5
25D
330
18
100
AcDbEntity
  8
LEVEL001
  6
Continuous
 62
     3
370
    20
100
AcDbLine
 10
76.887056743088
 20
80.261005028624
 30
0.0
 11
78.762056743088
 21
83.508600292816
 31
0.0
  0
LINE
  5
25E
330
18
100
AcDbEntity
  8
LEVEL001
  6
Continuous
 62
     3
370
    20
100
AcDbLine
 10
76.249556743088
 20
83.508600292816
 30
0.0
 11
77.505806743088
 21
81.332711465807
 31
0.0
  0
LINE
  5
25F
330
18
100
AcDbEntity
  8
LEVEL001
  6
Continuous
 62
     3
370
    20
100
AcDbLine
 10
78.762056743088
 20
83.508600292816
 30
0.0
 11
80.637056743088
 21
80.261005028624
 31
0.0
  0
LINE
  5
260
330
18
100
AcDbEntity
  8
LEVEL001
  6
Continuous
 62
     3
370
    20
100
AcDbLine
 10
78.108242311974
 20
80.261005028624
 30
0.0
 11
79.372649527531
 21
82.451022567425
 31
0.0
  0
LINE
  5
261
330
18
100
AcDbEntity
  8
LEVEL001
  6
Continuous
 62
     3
370
    20
100
AcDbLine
 10
79.345742311974
 20
80.261005028624
 30
0.0
 11
79.991399527531
 21
81.379316130242
 31
0.0
  0
LINE
  5
262
330
18
100
AcDbEntity
  8
LEVEL001
  6
Continuous
 62
     3
370
    20
100
AcDbLine
 10
77.487056743088
 20
83.508600292816
 30
0.0
 11
78.124556743088
 21
82.40441790299
 31
0.0
  0
LINE
  5
263
330
18
100
AcDbEntity
  8
LEVEL001
  6
Continuous
 62
     3
370
    20
100
AcDbLine
 10
75.012056743088
 20
83.508600292816
 30
0.0
 11
76.887056743088
 21
80.261005028624
 31
0.0
  0
LINE
  5
264
330
18
100
AcDbEntity
  8
LEVEL001
  6
Continuous
 62
     3
370
    20
100
AcDbLine
 10
74.358242311974
 20
80.261005028624
 30
0.0
 11
75.622649527531
 21
82.451022567425
 31
0.0
  0
LINE
  5
265
330
18
100
AcDbEntity
  8
LEVEL001
  6
Continuous
 62
     3
370
    20
100
AcDbLine
 10
75.595742311974
 20
80.261005028624
 30
0.0
 11
76.241399527531
 21
81.379316130242
 31
0.0
  0
LINE
  5
266
330
18
100
AcDbEntity
  8
LEVEL001
  6
Continuous
 62
     3
370
    20
100
AcDbLine
 10
73.137056743088
 20
80.261005028624
 30
0.0
 11
75.012056743088
 21
83.508600292816
 31
0.0
  0
LINE
  5
267
330
18
100
AcDbEntity
  8
LEVEL001
  6
Continuous
 62
     3
370
    20
100
AcDbLine
 10
72.499556743088
 20
83.508600292816
 30
0.0
 11
73.755806743088
 21
81.332711465807
 31
0.0
  0
LINE
  5
268
330
18
100
AcDbEntity
  8
LEVEL001
  6
Continuous
 62
     3
370
    20
100
AcDbLine
 10
73.737056743088
 20
83.508600292816
 30
0.0
 11
74.374556743088
 21
82.40441790299
 31
0.0
  0
LINE
  5
269
330
18
100
AcDbEntity
  8
LEVEL001
  6
Continuous
 62
     3
370
    20
100
AcDbLine
 10
82.512056743088
 20
83.508600292816
 30
0.0
 11
72.499556743088
 21
83.508600292816
 31
0.0
  0
LINE
  5
26A
330
18
100
AcDbEntity
  8
LEVEL001
  6
Continuous
 62
     1
370
    15
100
AcDbLine
 10
85.637056743088
 20
183.50860029282
 30
0.0
 11
45.553297264397
 21
183.50860029282
 31
0.0
  0
LINE
  5
26B
330
18
100
AcDbEntity
  8
LEVEL001
  6
Continuous
 62
     1
370
    15
100
AcDbLine
 10
85.824556743088
 20
258.50860029283
 30
0.0
 11
45.553297264397
 21
258.50860029283
 31
0.0
  0
LINE
  5
26C
330
18
100
AcDbEntity
  8
LEVEL001
  6
Continuous
 62
     1
370
    15
100
AcDbLine
 10
47.553297264397
 20
183.50860029282
 30
0.0
 11
47.553297264397
 21
221.00860029282
 31
0.0
  0
LINE
  5
26D
330
18
100
AcDbEntity
  8
LEVEL001
  6
Continuous
 62
     1
370
    15
100
AcDbLine
 10
47.553297264397
 20
258.50860029283
 30
0.0
 11
47.553297264397
 21
221.00860029282
 31
0.0
  0
LINE
  5
26E
330
18
100
AcDbEntity
  8
LEVEL001
  6
Continuous
 62
     1
370
    15
100
AcDbLine
 10
47.553297264397
 20
183.50860029282
 30
0.0
 11
48.357144841691
 21
186.50860029282
 31
0.0
  0
LINE
  5
26F
330
18
100
AcDbEntity
  8
LEVEL001
  6
Continuous
 62
     1
370
    15
100
AcDbLine
 10
47.553297264397
 20
183.50860029282
 30
0.0
 11
46.749449687104
 21
186.50860029282
 31
0.0
  0
LINE
  5
270
330
18
100
AcDbEntity
  8
LEVEL001
  6
Continuous
 62
     1
370
    15
100
AcDbLine
 10
47.553297264397
 20
258.50860029283
 30
0.0
 11
46.749449687104
 21
255.50860029283
 31
0.0
  0
LINE
  5
271
330
18
100
AcDbEntity
  8
LEVEL001
  6
Continuous
 62
     1
370
    15
100
AcDbLine
 10
47.553297264397
 20
258.50860029283
 30
0.0
 11
48.357144841691
 21
255.50860029283
 31
0.0
  0
MTEXT
  5
272
330
18
100
AcDbEntity
  8
LEVEL001
 62
     3
370
    20
100
AcDbMText
 10
45.839011550111
 20
221.00860029282
 30
0.0
 40
4.0
 41
0.0
 71
     8
 72
     1
  1
\A1;(3000)
 11
0.0
 21
1.0
 31
0.0
 73
     1
 44
1.0
  0
LINE
  5
273
330
18
100
AcDbEntity
  8
LEVEL001
  6
Continuous
 62
     1
370
    15
100
AcDbLine
 10
87.824556743088
 20
260.50860029282
 30
0.0
 11
87.824556743088
 21
270.02300453228
 31
0.0
  0
LINE
  5
274
330
18
100
AcDbEntity
  8
LEVEL001
  6
Continuous
 62
     1
370
    15
100
AcDbLine
 10
89.699556743088
 20
260.50860029282
 30
0.0
 11
89.699556743088
 21
270.02300453228
 31
0.0
  0
LINE
  5
275
330
18
100
AcDbEntity
  8
LEVEL001
  6
Continuous
 62
     1
370
    15
100
AcDbLine
 10
84.074556743088
 20
268.02300453228
 30
0.0
 11
88.762056743088
 21
268.02300453228
 31
0.0
  0
LINE
  5
276
330
18
100
AcDbEntity
  8
LEVEL001
  6
Continuous
 62
     1
370
    15
100
AcDbLine
 10
93.449556743088
 20
268.02300453228
 30
0.0
 11
88.762056743088
 21
268.02300453228
 31
0.0
  0
LINE
  5
277
330
18
100
AcDbEntity
  8
LEVEL001
  6
Continuous
 62
     1
370
    15
100
AcDbLine
 10
87.824556743088
 20
268.02300453228
 30
0.0
 11
84.824556743088
 21
268.82685210958
 31
0.0
  0
LINE
  5
278
330
18
100
AcDbEntity
  8
LEVEL001
  6
Continuous
 62
     1
370
    15
100
AcDbLine
 10
87.824556743088
 20
268.02300453228
 30
0.0
 11
84.824556743088
 21
267.21915695499
 31
0.0
  0
LINE
  5
279
330
18
100
AcDbEntity
  8
LEVEL001
  6
Continuous
 62
     1
370
    15
100
AcDbLine
 10
89.699556743088
 20
268.02300453228
 30
0.0
 11
92.699556743088
 21
267.21915695499
 31
0.0
  0
LINE
  5
27A
330
18
100
AcDbEntity
  8
LEVEL001
  6
Continuous
 62
     1
370
    15
100
AcDbLine
 10
89.699556743088
 20
268.02300453228
 30
0.0
 11
92.699556743088
 21
268.82685210958
 31
0.0
  0
MTEXT
  5
27B
330
18
100
AcDbEntity
  8
LEVEL001
 62
     3
370
    20
100
AcDbMText
 10
88.762056743088
 20
269.73729024657
 30
0.0
 40
4.0
 41
0.0
 71
     8
 72
     1
  1
\A1;(%%c75)
 73
     1
 44
1.0
  0
LINE
  5
27C
330
18
100
AcDbEntity
  8
LEVEL001
  6
Continuous
 62
     1
370
    15
100
AcDbLine
 10
89.051270305461
 20
184.92281385519
 30
0.0
 11
96.689592230866
 21
192.56113578059
 31
0.0
  0
LINE
  5
27D
330
18
100
AcDbEntity
  8
LEVEL001
  6
Continuous
 62
     1
370
    15
100
AcDbLine
 10
91.301270305461
 20
184.92281385519
 30
0.0
 11
98.939592230866
 21
192.56113578059
 31
0.0
  0
LINE
  5
27E
330
18
100
AcDbEntity
  8
LEVEL001
  6
Continuous
 62
     1
370
    15
100
AcDbLine
 10
91.525378668493
 20
191.14692221822
 30
0.0
 11
96.400378668493
 21
191.14692221822
 31
0.0
  0
LINE
  5
27F
330
18
100
AcDbEntity
  8
LEVEL001
  6
Continuous
 62
     1
370
    15
100
AcDbLine
 10
111.25597226398
 20
191.14692221822
 30
0.0
 11
96.400378668493
 21
191.14692221822
 31
0.0
  0
LINE
  5
280
330
18
100
AcDbEntity
  8
LEVEL001
  6
Continuous
 62
     1
370
    15
100
AcDbLine
 10
95.275378668493
 20
191.14692221822
 30
0.0
 11
92.275378668493
 21
191.95076979551
 31
0.0
  0
LINE
  5
281
330
18
100
AcDbEntity
  8
LEVEL001
  6
Continuous
 62
     1
370
    15
100
AcDbLine
 10
95.275378668493
 20
191.14692221822
 30
0.0
 11
92.275378668493
 21
190.34307464093
 31
0.0
  0
LINE
  5
282
330
18
100
AcDbEntity
  8
LEVEL001
  6
Continuous
 62
     1
370
    15
100
AcDbLine
 10
97.525378668493
 20
191.14692221822
 30
0.0
 11
100.52537866849
 21
190.34307464093
 31
0.0
  0
LINE
  5
283
330
18
100
AcDbEntity
  8
LEVEL001
  6
Continuous
 62
     1
370
    15
100
AcDbLine
 10
97.525378668493
 20
191.14692221822
 30
0.0
 11
100.52537866849
 21
191.95076979551
 31
0.0
  0
MTEXT
  5
284
330
18
100
AcDbEntity
  8
LEVEL001
 62
     3
370
    20
100
AcDbMText
 10
100.75597226398
 20
192.86120793251
 30
0.0
 40
4.0
 41
0.0
 71
     7
 72
     1
  1
\A1;%%c90
 73
     1
 44
1.0
  0
LINE
  5
285
330
18
100
AcDbEntity
  8
LEVEL001
  6
Continuous
 62
     1
370
    15
100
AcDbLine
 10
88.676270305461
 20
129.92281385519
 30
0.0
 11
97.202156679093
 21
138.44870022882
 31
0.0
  0
LINE
  5
286
330
18
100
AcDbEntity
  8
LEVEL001
  6
Continuous
 62
     1
370
    15
100
AcDbLine
 10
91.676270305461
 20
129.92281385519
 30
0.0
 11
100.20215667909
 21
138.44870022882
 31
0.0
  0
LINE
  5
287
330
18
100
AcDbEntity
  8
LEVEL001
  6
Continuous
 62
     1
370
    15
100
AcDbLine
 10
92.03794311672
 20
137.03448666645
 30
0.0
 11
97.28794311672
 21
137.03448666645
 31
0.0
  0
LINE
  5
288
330
18
100
AcDbEntity
  8
LEVEL001
  6
Continuous
 62
     1
370
    15
100
AcDbLine
 10
116.80605602355
 20
137.03448666645
 30
0.0
 11
97.28794311672
 21
137.03448666645
 31
0.0
  0
LINE
  5
289
330
18
100
AcDbEntity
  8
LEVEL001
  6
Continuous
 62
     1
370
    15
100
AcDbLine
 10
95.78794311672
 20
137.03448666645
 30
0.0
 11
92.78794311672
 21
137.83833424374
 31
0.0
  0
LINE
  5
28A
330
18
100
AcDbEntity
  8
LEVEL001
  6
Continuous
 62
     1
370
    15
100
AcDbLine
 10
95.78794311672
 20
137.03448666645
 30
0.0
 11
92.78794311672
 21
136.23063908915
 31
0.0
  0
LINE
  5
28B
330
18
100
AcDbEntity
  8
LEVEL001
  6
Continuous
 62
     1
370
    15
100
AcDbLine
 10
98.78794311672
 20
137.03448666645
 30
0.0
 11
101.78794311672
 21
136.23063908915
 31
0.0
  0
LINE
  5
28C
330
18
100
AcDbEntity
  8
LEVEL001
  6
Continuous
 62
     1
370
    15
100
AcDbLine
 10
98.78794311672
 20
137.03448666645
 30
0.0
 11
101.78794311672
 21
137.83833424374
 31
0.0
  0
MTEXT
  5
28D
330
18
100
AcDbEntity
  8
LEVEL001
 62
     3
370
    20
100
AcDbMText
 10
102.80605602355
 20
138.74877238073
 30
0.0
 40
4.0
 41
0.0
 71
     7
 72
     1
  1
\A1;%%c120
 73
     1
 44
1.0
  0
LINE
  5
28E
330
18
100
AcDbEntity
  8
LEVEL001
  6
Continuous
 62
     1
370
    15
100
AcDbLine
 10
87.121232659613
 20
261.43658569649
 30
0.0
 11
78.866729573116
 21
266.20371676109
 31
0.0
  0
CIRCLE
  5
28F
330
18
100
AcDbEntity
  8
LEVEL001
  6
Continuous
 62
     1
370
    15
100
AcDbCircle
 10
75.402880826564
 20
268.2041546784
 30
0.0
 40
4.0
  0
LINE
  5
290
330
18
100
AcDbEntity
  8
LEVEL001
  6
Continuous
 62
     1
370
    15
100
AcDbLine
 10
87.121232659613
 20
261.43658569649
 30
0.0
 11
84.925357893038
 21
263.63301574023
 31
0.0
  0
LINE
  5
291
330
18
100
AcDbEntity
  8
LEVEL001
  6
Continuous
 62
     1
370
    15
100
AcDbLine
 10
87.121232659613
 20
261.43658569649
 30
0.0
 11
84.12133430636
 21
262.24081252871
 31
0.0
  0
MTEXT
  5
292
330
18
100
AcDbEntity
  8
LEVEL001
 62
     3
370
    20
100
AcDbMText
 10
72.574453701818
 20
265.37572755366
 30
0.0
 40
5.6568542494924
 41
0.0
 71
     7
 72
     1
  1
\A1;２
 73
     1
 44
1.0
  0
LINE
  5
293
330
18
100
AcDbEntity
  8
LEVEL001
  6
Continuous
 62
     1
370
    15
100
AcDbLine
 10
87.637056743088
 20
211.68906065317
 30
0.0
 11
78.576177305226
 21
218.6424089867
 31
0.0
  0
CIRCLE
  5
294
330
18
100
AcDbEntity
  8
LEVEL001
  6
Continuous
 62
     1
370
    15
100
AcDbCircle
 10
75.402880826563
 20
221.07760701941
 30
0.0
 40
4.0
  0
LINE
  5
295
330
18
100
AcDbEntity
  8
LEVEL001
  6
Continuous
 62
     1
370
    15
100
AcDbLine
 10
87.637056743088
 20
211.68906065317
 30
0.0
 11
85.746466393797
 21
214.15317084931
 31
0.0
  0
LINE
  5
296
330
18
100
AcDbEntity
  8
LEVEL001
  6
Continuous
 62
     1
370
    15
100
AcDbLine
 10
87.637056743088
 20
211.68906065317
 30
0.0
 11
84.767702374386
 21
212.8777475061
 31
0.0
  0
MTEXT
  5
297
330
18
100
AcDbEntity
  8
LEVEL001
 62
     3
370
    20
100
AcDbMText
 10
71.608147634361
 20
219.81269595534
 30
0.0
 40
2.5298221281347
 41
0.0
 71
     7
 72
     1
  1
\A1;１－２
 73
     1
 44
1.0
  0
POLYLINE
  5
298
330
18
100
AcDbEntity
  8
LEVEL001
  6
Continuous
 62
     1
370
    15
100
AcDb2dPolyline
 66
     1
 10
0.0
 20
0.0
 30
0.0
  0
VERTEX
  5
299
330
298
100
AcDbEntity
  8
LEVEL001
  6
Continuous
 62
     1
100
AcDbVertex
100
AcDb2dVertex
 10
93.184243747221
 20
77.644989021605
 30
0.0
  0
VERTEX
  5
29A
330
298
100
AcDbEntity
  8
LEVEL001
  6
Continuous
 62
     1
100
AcDbVertex
100
AcDb2dVertex
 10
102.67147808549
 20
71.359716915702
 30
0.0
  0
VERTEX
  5
29B
330
298
100
AcDbEntity
  8
LEVEL001
  6
Continuous
 62
     1
100
AcDbVertex
100
AcDb2dVertex
 10
130.67147808549
 20
71.359716915702
 30
0.0
  0
SEQEND
  5
29C
330
298
100
AcDbEntity
  8
LEVEL001
  6
Continuous
 62
     1
  0
LINE
  5
29D
330
18
100
AcDbEntity
  8
LEVEL001
  6
Continuous
 62
     1
370
    15
100
AcDbLine
 10
93.184243747221
 20
77.644989021605
 30
0.0
 11
95.241237756653
 21
75.317985245785
 31
0.0
  0
LINE
  5
29E
330
18
100
AcDbEntity
  8
LEVEL001
  6
Continuous
 62
     1
370
    15
100
AcDbLine
 10
93.184243747221
 20
77.644989021605
 30
0.0
 11
96.129154702732
 21
76.658241641758
 31
0.0
  0
MTEXT
  5
29F
102
{ACAD_REACTORS
330
29E
102
}
330
18
100
AcDbEntity
  8
LEVEL001
 62
     3
370
    20
100
AcDbMText
 10
102.67147808549
 20
73.074002629988
 30
0.0
 40
4.0
 41
0.0
 71
     7
 72
     1
  1
\A1;基礎コンクリート
 73
     1
 44
1.0
  0
POLYLINE
  5
2A0
330
18
100
AcDbEntity
  8
LEVEL001
  6
Continuous
 62
     1
370
    15
100
AcDb2dPolyline
 66
     1
 10
0.0
 20
0.0
 30
0.0
  0
VERTEX
  5
2A1
330
2A0
100
AcDbEntity
  8
LEVEL001
  6
Continuous
 62
     1
100
AcDbVertex
100
AcDb2dVertex
 10
90.137056743088
 20
68.251023594891
 30
0.0
  0
VERTEX
  5
2A2
330
2A0
100
AcDbEntity
  8
LEVEL001
  6
Continuous
 62
     1
100
AcDbVertex
100
AcDb2dVertex
 10
99.358240643786
 20
61.301674681945
 30
0.0
  0
VERTEX
  5
2A3
330
2A0
100
AcDbEntity
  8
LEVEL001
  6
Continuous
 62
     1
100
AcDbVertex
100
AcDb2dVertex
 10
123.85824064379
 20
61.301674681945
 30
0.0
  0
SEQEND
  5
2A4
330
2A0
100
AcDbEntity
  8
LEVEL001
  6
Continuous
 62
     1
  0
LINE
  5
2A5
330
18
100
AcDbEntity
  8
LEVEL001
  6
Continuous
 62
     1
370
    15
100
AcDbLine
 10
90.137056743088
 20
68.251023594891
 30
0.0
 11
92.049079184252
 21
65.803506258485
 31
0.0
  0
LINE
  5
2A6
330
18
100
AcDbEntity
  8
LEVEL001
  6
Continuous
 62
     1
370
    15
100
AcDbLine
 10
90.137056743088
 20
68.251023594891
 30
0.0
 11
93.016675417945
 21
67.087422625943
 31
0.0
  0
MTEXT
  5
2A7
102
{ACAD_REACTORS
330
2A6
102
}
330
18
100
AcDbEntity
  8
LEVEL001
 62
     3
370
    20
100
AcDbMText
 10
99.358240643786
 20
63.015960396231
 30
0.0
 40
4.0
 41
0.0
 71
     7
 72
     1
  1
\A1;埋込部黒色塗装
 73
     1
 44
1.0
  0
LINE
  5
2A8
330
18
100
AcDbEntity
  8
LEVEL001
  6
Continuous
 62
     1
370
    15
100
AcDbLine
 10
80.012056743088
 20
54.008600292816
 30
0.0
 11
80.012056743088
 21
34.864495952654
 31
0.0
  0
LINE
  5
2A9
330
18
100
AcDbEntity
  8
LEVEL001
  6
Continuous
 62
     1
370
    15
100
AcDbLine
 10
97.512056743088
 20
54.008600292816
 30
0.0
 11
97.512056743088
 21
34.864495952654
 31
0.0
  0
LINE
  5
2AA
330
18
100
AcDbEntity
  8
LEVEL001
  6
Continuous
 62
     1
370
    15
100
AcDbLine
 10
64.165055810924
 20
36.864495952654
 30
0.0
 11
88.762056743088
 21
36.864495952654
 31
0.0
  0
LINE
  5
2AB
330
18
100
AcDbEntity
  8
LEVEL001
  6
Continuous
 62
     1
370
    15
100
AcDbLine
 10
97.512056743088
 20
36.864495952654
 30
0.0
 11
88.762056743088
 21
36.864495952654
 31
0.0
  0
LINE
  5
2AC
330
18
100
AcDbEntity
  8
LEVEL001
  6
Continuous
 62
     1
370
    15
100
AcDbLine
 10
80.012056743088
 20
36.864495952654
 30
0.0
 11
83.012056743088
 21
36.060648375361
 31
0.0
  0
LINE
  5
2AD
330
18
100
AcDbEntity
  8
LEVEL001
  6
Continuous
 62
     1
370
    15
100
AcDbLine
 10
80.012056743088
 20
36.864495952654
 30
0.0
 11
83.012056743088
 21
37.668343529947
 31
0.0
  0
LINE
  5
2AE
330
18
100
AcDbEntity
  8
LEVEL001
  6
Continuous
 62
     1
370
    15
100
AcDbLine
 10
97.512056743088
 20
36.864495952654
 30
0.0
 11
94.512056743088
 21
37.668343529947
 31
0.0
  0
LINE
  5
2AF
330
18
100
AcDbEntity
  8
LEVEL001
  6
Continuous
 62
     1
370
    15
100
AcDbLine
 10
97.512056743088
 20
36.864495952654
 30
0.0
 11
94.512056743088
 21
36.060648375361
 31
0.0
  0
MTEXT
  5
2B0
330
18
100
AcDbEntity
  8
LEVEL001
 62
     3
370
    20
100
AcDbMText
 10
78.165055810924
 20
38.57878166694
 30
0.0
 40
4.0
 41
0.0
 71
     9
 72
     1
  1
\A1;□700
 73
     1
 44
1.0
  0
LINE
  5
2B1
330
18
100
AcDbEntity
  8
LEVEL001
  6
Continuous
 62
     1
370
    15
100
AcDbLine
 10
82.512056743088
 20
56.508600292816
 30
0.0
 11
82.512056743088
 21
43.580171889244
 31
0.0
  0
LINE
  5
2B2
330
18
100
AcDbEntity
  8
LEVEL001
  6
Continuous
 62
     1
370
    15
100
AcDbLine
 10
95.012056743088
 20
56.508600292816
 30
0.0
 11
95.012056743088
 21
43.580171889244
 31
0.0
  0
LINE
  5
2B3
330
18
100
AcDbEntity
  8
LEVEL001
  6
Continuous
 62
     1
370
    15
100
AcDbLine
 10
65.907892142153
 20
45.580171889244
 30
0.0
 11
88.762056743088
 21
45.580171889244
 31
0.0
  0
LINE
  5
2B4
330
18
100
AcDbEntity
  8
LEVEL001
  6
Continuous
 62
     1
370
    15
100
AcDbLine
 10
95.012056743088
 20
45.580171889244
 30
0.0
 11
88.762056743088
 21
45.580171889244
 31
0.0
  0
LINE
  5
2B5
330
18
100
AcDbEntity
  8
LEVEL001
  6
Continuous
 62
     1
370
    15
100
AcDbLine
 10
82.512056743088
 20
45.580171889244
 30
0.0
 11
85.512056743088
 21
44.776324311951
 31
0.0
  0
LINE
  5
2B6
330
18
100
AcDbEntity
  8
LEVEL001
  6
Continuous
 62
     1
370
    15
100
AcDbLine
 10
82.512056743088
 20
45.580171889244
 30
0.0
 11
85.512056743088
 21
46.384019466537
 31
0.0
  0
LINE
  5
2B7
330
18
100
AcDbEntity
  8
LEVEL001
  6
Continuous
 62
     1
370
    15
100
AcDbLine
 10
95.012056743088
 20
45.580171889244
 30
0.0
 11
92.012056743088
 21
46.384019466537
 31
0.0
  0
LINE
  5
2B8
330
18
100
AcDbEntity
  8
LEVEL001
  6
Continuous
 62
     1
370
    15
100
AcDbLine
 10
95.012056743088
 20
45.580171889244
 30
0.0
 11
92.012056743088
 21
44.776324311951
 31
0.0
  0
MTEXT
  5
2B9
330
18
100
AcDbEntity
  8
LEVEL001
 62
     3
370
    20
100
AcDbMText
 10
79.907892142153
 20
47.29445760353
 30
0.0
 40
4.0
 41
0.0
 71
     9
 72
     1
  1
\A1;□500
 73
     1
 44
1.0
  0
POLYLINE
  5
2BA
330
18
100
AcDbEntity
  8
LEVEL001
  6
Continuous
 62
     1
370
    15
100
AcDb2dPolyline
 66
     1
 10
0.0
 20
0.0
 30
0.0
  0
VERTEX
  5
2BB
330
2BA
100
AcDbEntity
  8
LEVEL001
  6
Continuous
 62
     1
100
AcDbVertex
100
AcDb2dVertex
 10
89.137056743088
 20
54.758600292816
 30
0.0
  0
VERTEX
  5
2BC
330
2BA
100
AcDbEntity
  8
LEVEL001
  6
Continuous
 62
     1
100
AcDbVertex
100
AcDb2dVertex
 10
101.266667413
 20
45.081373789037
 30
0.0
  0
VERTEX
  5
2BD
330
2BA
100
AcDbEntity
  8
LEVEL001
  6
Continuous
 62
     1
100
AcDbVertex
100
AcDb2dVertex
 10
122.8019240413
 20
45.081373789037
 30
0.0
  0
SEQEND
  5
2BE
330
2BA
100
AcDbEntity
  8
LEVEL001
  6
Continuous
 62
     1
  0
LINE
  5
2BF
330
18
100
AcDbEntity
  8
LEVEL001
  6
Continuous
 62
     1
370
    15
100
AcDbLine
 10
89.137056743088
 20
54.758600292816
 30
0.0
 11
90.98083347451
 21
52.259268723739
 31
0.0
  0
LINE
  5
2C0
330
18
100
AcDbEntity
  8
LEVEL001
  6
Continuous
 62
     1
370
    15
100
AcDbLine
 10
89.137056743088
 20
54.758600292816
 30
0.0
 11
91.983480015945
 21
53.516004027226
 31
0.0
  0
MTEXT
  5
2C1
102
{ACAD_REACTORS
330
2C0
102
}
330
18
100
AcDbEntity
  8
LEVEL001
 62
     3
370
    20
100
AcDbMText
 10
101.8019240413
 20
46.795659503322
 30
0.0
 40
4.0
 41
0.0
 71
     7
 72
     1
  1
\A1;水抜きパイプ
 73
     1
 44
1.0
  0
POLYLINE
  5
2C2
330
18
100
AcDbEntity
  8
LEVEL001
  6
Continuous
 62
     1
370
    15
100
AcDb2dPolyline
 66
     1
 10
0.0
 20
0.0
 30
0.0
  0
VERTEX
  5
2C3
330
2C2
100
AcDbEntity
  8
LEVEL001
  6
Continuous
 62
     1
100
AcDbVertex
100
AcDb2dVertex
 10
96.754982653872
 20
57.041797971177
 30
0.0
  0
VERTEX
  5
2C4
330
2C2
100
AcDbEntity
  8
LEVEL001
  6
Continuous
 62
     1
100
AcDbVertex
100
AcDb2dVertex
 10
103.35170777609
 20
52.796023132452
 30
0.0
  0
VERTEX
  5
2C5
330
2C2
100
AcDbEntity
  8
LEVEL001
  6
Continuous
 62
     1
100
AcDbVertex
100
AcDb2dVertex
 10
115.24756410856
 20
52.796023132452
 30
0.0
  0
SEQEND
  5
2C6
330
2C2
100
AcDbEntity
  8
LEVEL001
  6
Continuous
 62
     1
  0
LINE
  5
2C7
330
18
100
AcDbEntity
  8
LEVEL001
  6
Continuous
 62
     1
370
    15
100
AcDbLine
 10
96.754982653872
 20
57.041797971177
 30
0.0
 11
98.842593173666
 21
54.742221217693
 31
0.0
  0
LINE
  5
2C8
330
18
100
AcDbEntity
  8
LEVEL001
  6
Continuous
 62
     1
370
    15
100
AcDbLine
 10
96.754982653872
 20
57.041797971177
 30
0.0
 11
99.712694773964
 21
56.094111344604
 31
0.0
  0
MTEXT
  5
2C9
102
{ACAD_REACTORS
330
2C8
102
}
330
18
100
AcDbEntity
  8
LEVEL001
 62
     3
370
    20
100
AcDbMText
 10
104.74756410856
 20
54.510308846738
 30
0.0
 40
4.0
 41
0.0
 71
     7
 72
     1
  1
\A1;割栗石
 73
     1
 44
1.0
  0
LINE
  5
2CA
330
18
100
AcDbEntity
  8
LEVEL001
  6
Continuous
 62
     1
370
    15
100
AcDbLine
 10
78.012056743088
 20
58.508600292816
 30
0.0
 11
35.518315593983
 21
58.508600292816
 31
0.0
  0
LINE
  5
2CB
330
18
100
AcDbEntity
  8
LEVEL001
  6
Continuous
 62
     1
370
    15
100
AcDbLine
 10
78.012056743088
 20
56.008600292816
 30
0.0
 11
35.518315593983
 21
56.008600292816
 31
0.0
  0
LINE
  5
2CC
330
18
100
AcDbEntity
  8
LEVEL001
  6
Continuous
 62
     1
370
    15
100
AcDbLine
 10
37.518315593983
 20
62.258600292816
 30
0.0
 11
37.518315593983
 21
57.258600292816
 31
0.0
  0
LINE
  5
2CD
330
18
100
AcDbEntity
  8
LEVEL001
  6
Continuous
 62
     1
370
    15
100
AcDbLine
 10
37.518315593983
 20
44.537188108639
 30
0.0
 11
37.518315593983
 21
57.258600292816
 31
0.0
  0
LINE
  5
2CE
330
18
100
AcDbEntity
  8
LEVEL001
  6
Continuous
 62
     1
370
    15
100
AcDbLine
 10
37.518315593983
 20
58.508600292816
 30
0.0
 11
38.322163171276
 21
61.508600292816
 31
0.0
  0
LINE
  5
2CF
330
18
100
AcDbEntity
  8
LEVEL001
  6
Continuous
 62
     1
370
    15
100
AcDbLine
 10
37.518315593983
 20
58.508600292816
 30
0.0
 11
36.714468016689
 21
61.508600292816
 31
0.0
  0
LINE
  5
2D0
330
18
100
AcDbEntity
  8
LEVEL001
  6
Continuous
 62
     1
370
    15
100
AcDbLine
 10
37.518315593983
 20
56.008600292816
 30
0.0
 11
36.714468016689
 21
53.008600292816
 31
0.0
  0
LINE
  5
2D1
330
18
100
AcDbEntity
  8
LEVEL001
  6
Continuous
 62
     1
370
    15
100
AcDbLine
 10
37.518315593983
 20
56.008600292816
 30
0.0
 11
38.322163171276
 21
53.008600292816
 31
0.0
  0
MTEXT
  5
2D2
330
18
100
AcDbEntity
  8
LEVEL001
 62
     3
370
    20
100
AcDbMText
 10
35.804029879697
 20
55.037188108639
 30
0.0
 40
4.0
 41
0.0
 71
     9
 72
     1
  1
\A1;100
 11
0.0
 21
1.0
 31
0.0
 73
     1
 44
1.0
  0
LINE
  5
2D3
330
18
100
AcDbEntity
  8
LEVEL001
  6
Continuous
 62
     1
370
    15
100
AcDbLine
 10
87.930781669881
 20
135.91624067567
 30
0.0
 11
79.080463475283
 21
143.66886707986
 31
0.0
  0
CIRCLE
  5
2D4
330
18
100
AcDbEntity
  8
LEVEL001
  6
Continuous
 62
     1
370
    15
100
AcDbCircle
 10
76.071605753357
 20
146.30454065776
 30
0.0
 40
4.0
  0
LINE
  5
2D5
330
18
100
AcDbEntity
  8
LEVEL001
  6
Continuous
 62
     1
370
    15
100
AcDbLine
 10
87.930781669881
 20
135.91624067567
 30
0.0
 11
86.203808333468
 21
138.49766160664
 31
0.0
  0
LINE
  5
2D6
330
18
100
AcDbEntity
  8
LEVEL001
  6
Continuous
 62
     1
370
    15
100
AcDbLine
 10
87.930781669881
 20
135.91624067567
 30
0.0
 11
85.144468423405
 21
137.28833011154
 31
0.0
  0
MTEXT
  5
2D7
330
18
100
AcDbEntity
  8
LEVEL001
 62
     3
370
    20
100
AcDbMText
 10
72.276872561155
 20
145.03962959369
 30
0.0
 40
2.5298221281347
 41
0.0
 71
     7
 72
     1
  1
\A1;１－１
 73
     1
 44
1.0
  0
LINE
  5
2D8
330
18
100
AcDbEntity
  8
LEVEL001
  6
Continuous
 62
     1
370
    15
100
AcDbLine
 10
86.408952476322
 20
84.701707912127
 30
0.0
 11
78.546359329217
 21
90.888696481717
 31
0.0
  0
CIRCLE
  5
2D9
330
18
100
AcDbEntity
  8
LEVEL001
  6
Continuous
 62
     1
370
    15
100
AcDbCircle
 10
75.402880826564
 20
93.362265341353
 30
0.0
 40
4.0
  0
LINE
  5
2DA
330
18
100
AcDbEntity
  8
LEVEL001
  6
Continuous
 62
     1
370
    15
100
AcDbLine
 10
86.408952476322
 20
84.701707912127
 30
0.0
 11
84.548436683104
 21
87.188603951512
 31
0.0
  0
LINE
  5
2DB
330
18
100
AcDbEntity
  8
LEVEL001
  6
Continuous
 62
     1
370
    15
100
AcDbLine
 10
86.408952476322
 20
84.701707912127
 30
0.0
 11
83.554250515561
 21
85.925165162196
 31
0.0
  0
MTEXT
  5
2DC
330
18
100
AcDbEntity
  8
LEVEL001
 62
     3
370
    20
100
AcDbMText
 10
72.574453701818
 20
90.533838216606
 30
0.0
 40
5.6568542494924
 41
0.0
 71
     7
 72
     1
  1
\A1;５
 73
     1
 44
1.0
  0
POLYLINE
  5
2DD
330
18
100
AcDbEntity
  8
LEVEL001
  6
Continuous
 62
     1
370
    15
100
AcDb2dPolyline
 66
     1
 10
0.0
 20
0.0
 30
0.0
  0
VERTEX
  5
2DE
330
2DD
100
AcDbEntity
  8
LEVEL001
  6
Continuous
 62
     1
100
AcDbVertex
100
AcDb2dVertex
 10
89.887056743088
 20
183.50860029282
 30
0.0
  0
VERTEX
  5
2DF
330
2DD
100
AcDbEntity
  8
LEVEL001
  6
Continuous
 62
     1
100
AcDbVertex
100
AcDb2dVertex
 10
98.531943241294
 20
175.00148879615
 30
0.0
  0
VERTEX
  5
2E0
330
2DD
100
AcDbEntity
  8
LEVEL001
  6
Continuous
 62
     1
100
AcDbVertex
100
AcDb2dVertex
 10
117.38829746938
 20
175.00148879615
 30
0.0
  0
SEQEND
  5
2E1
330
2DD
100
AcDbEntity
  8
LEVEL001
  6
Continuous
 62
     1
  0
LINE
  5
2E2
330
18
100
AcDbEntity
  8
LEVEL001
  6
Continuous
 62
     1
370
    15
100
AcDbLine
 10
89.887056743088
 20
183.50860029282
 30
0.0
 11
91.461525695002
 21
180.83143417041
 31
0.0
  0
LINE
  5
2E3
330
18
100
AcDbEntity
  8
LEVEL001
  6
Continuous
 62
     1
370
    15
100
AcDbLine
 10
89.887056743088
 20
183.50860029282
 30
0.0
 11
92.58916991412
 21
181.97734089661
 31
0.0
  0
MTEXT
  5
2E4
102
{ACAD_REACTORS
330
2E3
102
}
330
18
100
AcDbEntity
  8
LEVEL001
 62
     3
370
    20
100
AcDbMText
 10
99.888297469376
 20
176.71577451044
 30
0.0
 40
4.0
 41
0.0
 71
     7
 72
     1
  1
\A1;現地結合部
 73
     1
 44
1.0
  0
LINE
  5
2E5
330
18
100
AcDbEntity
  8
LEVEL001
  6
Continuous
 62
     1
370
    15
100
AcDbLine
 10
86.137056743088
 20
112.25860029282
 30
0.0
 11
78.731640999894
 21
117.59915282678
 31
0.0
  0
CIRCLE
  5
2E6
330
18
100
AcDbEntity
  8
LEVEL001
  6
Continuous
 62
     1
370
    15
100
AcDbCircle
 10
75.487302221881
 20
119.93886774392
 30
0.0
 40
4.0
  0
LINE
  5
2E7
330
18
100
AcDbEntity
  8
LEVEL001
  6
Continuous
 62
     1
370
    15
100
AcDbLine
 10
86.137056743088
 20
112.25860029282
 30
0.0
 11
84.173996201503
 21
114.66537494733
 31
0.0
  0
LINE
  5
2E8
330
18
100
AcDbEntity
  8
LEVEL001
  6
Continuous
 62
     1
370
    15
100
AcDbLine
 10
86.137056743088
 20
112.25860029282
 30
0.0
 11
83.233609117654
 21
113.36139801401
 31
0.0
  0
MTEXT
  5
2E9
330
18
100
AcDbEntity
  8
LEVEL001
 62
     3
370
    20
100
AcDbMText
 10
72.658875097135
 20
117.11044061918
 30
0.0
 40
5.6568542494924
 41
0.0
 71
     7
 72
     1
  1
\A1;４
 73
     1
 44
1.0
  0
LINE
  5
2EA
330
18
100
AcDbEntity
  8
LEVEL001
  6
Continuous
 62
     1
370
    15
100
AcDbLine
 10
80.512056743088
 20
83.508600292816
 30
0.0
 11
35.518315593983
 21
83.508600292816
 31
0.0
  0
LINE
  5
2EB
330
18
100
AcDbEntity
  8
LEVEL001
  6
Continuous
 62
     1
370
    15
100
AcDbLine
 10
78.012056743088
 20
58.508600292816
 30
0.0
 11
35.518315593983
 21
58.508600292816
 31
0.0
  0
LINE
  5
2EC
330
18
100
AcDbEntity
  8
LEVEL001
  6
Continuous
 62
     1
370
    15
100
AcDbLine
 10
37.518315593983
 20
83.508600292816
 30
0.0
 11
37.518315593983
 21
71.008600292816
 31
0.0
  0
LINE
  5
2ED
330
18
100
AcDbEntity
  8
LEVEL001
  6
Continuous
 62
     1
370
    15
100
AcDbLine
 10
37.518315593983
 20
58.508600292816
 30
0.0
 11
37.518315593983
 21
71.008600292816
 31
0.0
  0
LINE
  5
2EE
330
18
100
AcDbEntity
  8
LEVEL001
  6
Continuous
 62
     1
370
    15
100
AcDbLine
 10
37.518315593983
 20
83.508600292816
 30
0.0
 11
36.714468016689
 21
80.508600292816
 31
0.0
  0
LINE
  5
2EF
330
18
100
AcDbEntity
  8
LEVEL001
  6
Continuous
 62
     1
370
    15
100
AcDbLine
 10
37.518315593983
 20
83.508600292816
 30
0.0
 11
38.322163171276
 21
80.508600292816
 31
0.0
  0
LINE
  5
2F0
330
18
100
AcDbEntity
  8
LEVEL001
  6
Continuous
 62
     1
370
    15
100
AcDbLine
 10
37.518315593983
 20
58.508600292816
 30
0.0
 11
38.322163171276
 21
61.508600292816
 31
0.0
  0
LINE
  5
2F1
330
18
100
AcDbEntity
  8
LEVEL001
  6
Continuous
 62
     1
370
    15
100
AcDbLine
 10
37.518315593983
 20
58.508600292816
 30
0.0
 11
36.714468016689
 21
61.508600292816
 31
0.0
  0
MTEXT
  5
2F2
330
18
100
AcDbEntity
  8
LEVEL001
 62
     3
370
    20
100
AcDbMText
 10
35.804029879697
 20
71.008600292816
 30
0.0
 40
4.0
 41
0.0
 71
     8
 72
     1
  1
\A1;1000
 11
0.0
 21
1.0
 31
0.0
 73
     1
 44
1.0
  0
LINE
  5
2F3
330
18
100
AcDbEntity
  8
LEVEL001
  6
Continuous
 62
     1
370
    15
100
AcDbLine
 10
84.137056743088
 20
112.25860029282
 30
0.0
 11
66.260196918881
 21
112.25860029282
 31
0.0
  0
LINE
  5
2F4
330
18
100
AcDbEntity
  8
LEVEL001
  6
Continuous
 62
     1
370
    15
100
AcDbLine
 10
85.262056743088
 20
83.508600292816
 30
0.0
 11
66.260196918881
 21
83.508600292816
 31
0.0
  0
LINE
  5
2F5
330
18
100
AcDbEntity
  8
LEVEL001
  6
Continuous
 62
     1
370
    15
100
AcDbLine
 10
68.260196918881
 20
112.25860029282
 30
0.0
 11
68.260196918881
 21
97.883600292816
 31
0.0
  0
LINE
  5
2F6
330
18
100
AcDbEntity
  8
LEVEL001
  6
Continuous
 62
     1
370
    15
100
AcDbLine
 10
68.260196918881
 20
83.508600292816
 30
0.0
 11
68.260196918881
 21
97.883600292816
 31
0.0
  0
LINE
  5
2F7
330
18
100
AcDbEntity
  8
LEVEL001
  6
Continuous
 62
     1
370
    15
100
AcDbLine
 10
68.260196918881
 20
112.25860029282
 30
0.0
 11
67.456349341587
 21
109.25860029282
 31
0.0
  0
LINE
  5
2F8
330
18
100
AcDbEntity
  8
LEVEL001
  6
Continuous
 62
     1
370
    15
100
AcDbLine
 10
68.260196918881
 20
112.25860029282
 30
0.0
 11
69.064044496174
 21
109.25860029282
 31
0.0
  0
LINE
  5
2F9
330
18
100
AcDbEntity
  8
LEVEL001
  6
Continuous
 62
     1
370
    15
100
AcDbLine
 10
68.260196918881
 20
83.508600292816
 30
0.0
 11
69.064044496174
 21
86.508600292816
 31
0.0
  0
LINE
  5
2FA
330
18
100
AcDbEntity
  8
LEVEL001
  6
Continuous
 62
     1
370
    15
100
AcDbLine
 10
68.260196918881
 20
83.508600292816
 30
0.0
 11
67.456349341587
 21
86.508600292816
 31
0.0
  0
MTEXT
  5
2FB
330
18
100
AcDbEntity
  8
LEVEL001
 62
     3
370
    20
100
AcDbMText
 10
66.545911204595
 20
97.883600292816
 30
0.0
 40
4.0
 41
0.0
 71
     8
 72
     1
  1
\A1;1150
 11
0.0
 21
1.0
 31
0.0
 73
     1
 44
1.0
  0
LINE
  5
2FC
330
18
100
AcDbEntity
  8
LEVEL001
  6
Continuous
 62
     1
370
    15
100
AcDbLine
 10
85.262056743088
 20
83.508600292816
 30
0.0
 11
55.615003253508
 21
83.508600292816
 31
0.0
  0
LINE
  5
2FD
330
18
100
AcDbEntity
  8
LEVEL001
  6
Continuous
 62
     1
370
    15
100
AcDbLine
 10
85.262056743088
 20
128.50860029282
 30
0.0
 11
55.615003253508
 21
128.50860029282
 31
0.0
  0
LINE
  5
2FE
330
18
100
AcDbEntity
  8
LEVEL001
  6
Continuous
 62
     1
370
    15
100
AcDbLine
 10
57.615003253508
 20
83.508600292816
 30
0.0
 11
57.615003253508
 21
106.00860029282
 31
0.0
  0
LINE
  5
2FF
330
18
100
AcDbEntity
  8
LEVEL001
  6
Continuous
 62
     1
370
    15
100
AcDbLine
 10
57.615003253508
 20
128.50860029282
 30
0.0
 11
57.615003253508
 21
106.00860029282
 31
0.0
  0
LINE
  5
300
330
18
100
AcDbEntity
  8
LEVEL001
  6
Continuous
 62
     1
370
    15
100
AcDbLine
 10
57.615003253508
 20
83.508600292816
 30
0.0
 11
58.418850830801
 21
86.508600292816
 31
0.0
  0
LINE
  5
301
330
18
100
AcDbEntity
  8
LEVEL001
  6
Continuous
 62
     1
370
    15
100
AcDbLine
 10
57.615003253508
 20
83.508600292816
 30
0.0
 11
56.811155676215
 21
86.508600292816
 31
0.0
  0
LINE
  5
302
330
18
100
AcDbEntity
  8
LEVEL001
  6
Continuous
 62
     1
370
    15
100
AcDbLine
 10
57.615003253508
 20
128.50860029282
 30
0.0
 11
56.811155676215
 21
125.50860029282
 31
0.0
  0
LINE
  5
303
330
18
100
AcDbEntity
  8
LEVEL001
  6
Continuous
 62
     1
370
    15
100
AcDbLine
 10
57.615003253508
 20
128.50860029282
 30
0.0
 11
58.418850830801
 21
125.50860029282
 31
0.0
  0
MTEXT
  5
304
330
18
100
AcDbEntity
  8
LEVEL001
 62
     3
370
    20
100
AcDbMText
 10
55.900717539222
 20
106.00860029282
 30
0.0
 40
4.0
 41
0.0
 71
     8
 72
     1
  1
\A1;(1800)
 11
0.0
 21
1.0
 31
0.0
 73
     1
 44
1.0
  0
LINE
  5
305
330
18
100
AcDbEntity
  8
LEVEL001
  6
Continuous
 62
     1
370
    15
100
AcDbLine
 10
85.637056743088
 20
183.50860029282
 30
0.0
 11
45.553297264397
 21
183.50860029282
 31
0.0
  0
LINE
  5
306
330
18
100
AcDbEntity
  8
LEVEL001
  6
Continuous
 62
     1
370
    15
100
AcDbLine
 10
85.262056743088
 20
83.508600292816
 30
0.0
 11
45.553297264397
 21
83.508600292816
 31
0.0
  0
LINE
  5
307
330
18
100
AcDbEntity
  8
LEVEL001
  6
Continuous
 62
     1
370
    15
100
AcDbLine
 10
47.553297264397
 20
183.50860029282
 30
0.0
 11
47.553297264397
 21
133.50860029282
 31
0.0
  0
LINE
  5
308
330
18
100
AcDbEntity
  8
LEVEL001
  6
Continuous
 62
     1
370
    15
100
AcDbLine
 10
47.553297264397
 20
83.508600292816
 30
0.0
 11
47.553297264397
 21
133.50860029282
 31
0.0
  0
LINE
  5
309
330
18
100
AcDbEntity
  8
LEVEL001
  6
Continuous
 62
     1
370
    15
100
AcDbLine
 10
47.553297264397
 20
183.50860029282
 30
0.0
 11
46.749449687104
 21
180.50860029282
 31
0.0
  0
LINE
  5
30A
330
18
100
AcDbEntity
  8
LEVEL001
  6
Continuous
 62
     1
370
    15
100
AcDbLine
 10
47.553297264397
 20
183.50860029282
 30
0.0
 11
48.357144841691
 21
180.50860029282
 31
0.0
  0
LINE
  5
30B
330
18
100
AcDbEntity
  8
LEVEL001
  6
Continuous
 62
     1
370
    15
100
AcDbLine
 10
47.553297264397
 20
83.508600292816
 30
0.0
 11
48.357144841691
 21
86.508600292816
 31
0.0
  0
LINE
  5
30C
330
18
100
AcDbEntity
  8
LEVEL001
  6
Continuous
 62
     1
370
    15
100
AcDbLine
 10
47.553297264397
 20
83.508600292816
 30
0.0
 11
46.749449687104
 21
86.508600292816
 31
0.0
  0
MTEXT
  5
30D
330
18
100
AcDbEntity
  8
LEVEL001
 62
     3
370
    20
100
AcDbMText
 10
45.839011550111
 20
133.50860029282
 30
0.0
 40
4.0
 41
0.0
 71
     8
 72
     1
  1
\A1;(4000)
 11
0.0
 21
1.0
 31
0.0
 73
     1
 44
1.0
  0
LINE
  5
30E
330
18
100
AcDbEntity
  8
LEVEL001
  6
Continuous
 62
     1
370
    15
100
AcDbLine
 10
85.262056743088
 20
83.508600292816
 30
0.0
 11
35.518315593983
 21
83.508600292816
 31
0.0
  0
LINE
  5
30F
330
18
100
AcDbEntity
  8
LEVEL001
  6
Continuous
 62
     1
370
    15
100
AcDbLine
 10
85.824556743088
 20
258.50860029283
 30
0.0
 11
35.518315593983
 21
258.50860029283
 31
0.0
  0
LINE
  5
310
330
18
100
AcDbEntity
  8
LEVEL001
  6
Continuous
 62
     1
370
    15
100
AcDbLine
 10
37.518315593983
 20
83.508600292816
 30
0.0
 11
37.518315593983
 21
171.00860029282
 31
0.0
  0
LINE
  5
311
330
18
100
AcDbEntity
  8
LEVEL001
  6
Continuous
 62
     1
370
    15
100
AcDbLine
 10
37.518315593983
 20
258.50860029283
 30
0.0
 11
37.518315593983
 21
171.00860029282
 31
0.0
  0
LINE
  5
312
330
18
100
AcDbEntity
  8
LEVEL001
  6
Continuous
 62
     1
370
    15
100
AcDbLine
 10
37.518315593983
 20
83.508600292816
 30
0.0
 11
38.322163171276
 21
86.508600292816
 31
0.0
  0
LINE
  5
313
330
18
100
AcDbEntity
  8
LEVEL001
  6
Continuous
 62
     1
370
    15
100
AcDbLine
 10
37.518315593983
 20
83.508600292816
 30
0.0
 11
36.714468016689
 21
86.508600292816
 31
0.0
  0
LINE
  5
314
330
18
100
AcDbEntity
  8
LEVEL001
  6
Continuous
 62
     1
370
    15
100
AcDbLine
 10
37.518315593983
 20
258.50860029283
 30
0.0
 11
36.714468016689
 21
255.50860029283
 31
0.0
  0
LINE
  5
315
330
18
100
AcDbEntity
  8
LEVEL001
  6
Continuous
 62
     1
370
    15
100
AcDbLine
 10
37.518315593983
 20
258.50860029283
 30
0.0
 11
38.322163171276
 21
255.50860029283
 31
0.0
  0
MTEXT
  5
316
330
18
100
AcDbEntity
  8
LEVEL001
 62
     3
370
    20
100
AcDbMText
 10
35.804029879697
 20
171.00860029282
 30
0.0
 40
4.0
 41
0.0
 71
     8
 72
     1
  1
\A1;7000
 11
0.0
 21
1.0
 31
0.0
 73
     1
 44
1.0
  0
TEXT
  5
317
330
18
100
AcDbEntity
  8
LEVEL001
 62
     3
370
    20
100
AcDbText
 10
73.065993731221
 20
19.612276730688
 30
0.0
 40
5.0
  1
ポール姿図
 72
     5
 11
98.065993731221
 21
19.612276730688
 31
0.0
100
AcDbText
  0
TEXT
  5
318
330
18
100
AcDbEntity
  8
LEVEL001
 62
     3
370
    20
100
AcDbText
 10
78.103593318124
 20
14.397884579524
 30
0.0
 40
5.0
  1
Ｓ＝１：４０
 41
0.5
 72
     5
 11
93.103593318124
 21
14.397884579524
 31
0.0
100
AcDbText
  0
TEXT
  5
319
330
18
100
AcDbEntity
  8
LEVEL001
 62
     3
370
    20
100
AcDbText
 10
356.6
 20
21.109792452098
 30
0.0
 40
4.0
  1
ＦＰ０７０Ｕｚｘ
 72
     5
 11
388.6
 21
21.109792452098
 31
0.0
100
AcDbText
  0
LWPOLYLINE
  5
31A
330
18
100
AcDbEntity
  8
LEVEL001
  6
DOT
 62
     1
370
    15
100
AcDbPolyline
 90
        4
 70
     0
 43
0.0
 10
87.712056743088
 20
183.50860029282
 10
87.712056743088
 20
187.25860029282
 10
89.812056743088
 20
187.25860029282
 10
89.812056743088
 20
183.50860029282
  0
TEXT
  5
31B
330
18
100
AcDbEntity
  8
LEVEL001
 62
     3
370
    20
100
AcDbText
 10
347.0
 20
282.5
 30
0.0
 40
3.0
  1
製品仕様
 72
     5
 11
359.0
 21
282.5
 31
0.0
100
AcDbText
  0
TEXT
  5
31C
330
18
100
AcDbEntity
  8
LEVEL001
 62
     3
370
    20
100
AcDbText
 10
347.0
 20
278.5
 30
0.0
 40
3.0
  1
・主要材料はアルミニウム合金製とします。
 72
     5
 11
407.0
 21
278.5
 31
0.0
100
AcDbText
  0
TEXT
  5
31D
330
18
100
AcDbEntity
  8
LEVEL001
 62
     3
370
    20
100
AcDbText
 10
347.0
 20
274.5
 30
0.0
 40
3.0
  1
・表面処理はヘアライン研磨後
 72
     5
 11
389.0
 21
274.5
 31
0.0
100
AcDbText
  0
TEXT
  5
31E
330
18
100
AcDbEntity
  8
LEVEL001
 62
     3
370
    20
100
AcDbText
 10
347.0
 20
270.5
 30
0.0
 40
3.0
  1
　アクリル樹脂クリア塗装を施します。
 72
     5
 11
401.0
 21
270.5
 31
0.0
100
AcDbText
  0
TEXT
  5
31F
330
18
100
AcDbEntity
  8
LEVEL001
 62
     3
370
    20
100
AcDbText
 10
347.0
 20
266.5
 30
0.0
 40
3.0
  1
・材質指示のないボルト類はＳＵＳ３０４
 72
     5
 11
404.0
 21
266.5
 31
0.0
100
AcDbText
  0
TEXT
  5
320
330
18
100
AcDbEntity
  8
LEVEL001
 62
     3
370
    20
100
AcDbText
 10
347.0
 20
262.5
 30
0.0
 40
3.0
  1
　とします。
 72
     5
 11
365.0
 21
262.5
 31
0.0
100
AcDbText
  0
TEXT
  5
321
330
18
100
AcDbEntity
  8
LEVEL001
 62
     3
370
    20
100
AcDbText
 10
347.0
 20
258.5
 30
0.0
 40
3.0
  1
設計条件
 72
     5
 11
359.0
 21
258.5
 31
0.0
100
AcDbText
  0
TEXT
  5
322
330
18
100
AcDbEntity
  8
LEVEL001
 62
     3
370
    20
100
AcDbText
 10
347.0
 20
254.5
 30
0.0
 40
3.0
  1
・基準風速と地表面粗度の許容範囲の目安は
 72
     5
 11
407.0
 21
254.5
 31
0.0
100
AcDbText
  0
TEXT
  5
323
330
18
100
AcDbEntity
  8
LEVEL001
 62
     3
370
    20
100
AcDbText
 10
347.0
 20
250.5
 30
0.0
 40
3.0
  1
　下表を参照願います。（旗無し時）
 72
     5
 11
398.0
 21
250.5
 31
0.0
100
AcDbText
  0
TEXT
  5
324
330
18
100
AcDbEntity
  8
LEVEL001
 62
     3
370
    20
100
AcDbText
 10
347.0
 20
246.5
 30
0.0
 40
3.0
  1
・基礎寸法は地盤の許容応力度が１０ｔ／㎡
 72
     5
 11
407.0
 21
246.5
 31
0.0
100
AcDbText
  0
TEXT
  5
325
330
18
100
AcDbEntity
  8
LEVEL001
 62
     3
370
    20
100
AcDbText
 10
347.0
 20
242.5
 30
0.0
 40
3.0
  1
　（短期）時の参考寸法です。
 72
     5
 11
389.0
 21
242.5
 31
0.0
100
AcDbText
  0
TEXT
  5
326
330
18
100
AcDbEntity
  8
LEVEL001
 62
     3
370
    20
100
AcDbText
 10
347.0
 20
238.5
 30
0.0
 40
3.0
  1
・地上～１５ｍ迄　
 72
     5
 11
374.0
 21
238.5
 31
0.0
100
AcDbText
  0
TEXT
  5
327
330
18
100
AcDbEntity
  8
LEVEL001
 62
     3
370
    20
100
AcDbText
 10
347.0
 20
234.5
 30
0.0
 40
3.0
  1
    　粗度区分　I 　  II　　III　　IV
 41
0.71153846153846
 72
     5
 11
402.5
 21
234.5
 31
0.0
100
AcDbText
  0
TEXT
  5
328
330
18
100
AcDbEntity
  8
LEVEL001
 62
     3
370
    20
100
AcDbText
 10
347.0
 20
230.5
 30
0.0
 40
3.0
  1
　　　　３０    ○    ○    ○    ○
 41
0.69230769230769
 72
     5
 11
401.0
 21
230.5
 31
0.0
100
AcDbText
  0
TEXT
  5
329
330
18
100
AcDbEntity
  8
LEVEL001
 62
     3
370
    20
100
AcDbText
 10
347.0
 20
226.5
 30
0.0
 40
3.0
  1
　　　　３２    ○    ○    ○    ○
 41
0.69230769230769
 72
     5
 11
401.0
 21
226.5
 31
0.0
100
AcDbText
  0
TEXT
  5
32A
330
18
100
AcDbEntity
  8
LEVEL001
 62
     3
370
    20
100
AcDbText
 10
347.0
 20
222.5
 30
0.0
 40
3.0
  1
　　　　３４    ○    ○    ○    ○
 41
0.69230769230769
 72
     5
 11
401.0
 21
222.5
 31
0.0
100
AcDbText
  0
TEXT
  5
32B
330
18
100
AcDbEntity
  8
LEVEL001
 62
     3
370
    20
100
AcDbText
 10
347.0
 20
218.5
 30
0.0
 40
3.0
  1
　　　　３６    －    ○　  ○    ○
 41
0.72
 72
     5
 11
401.0
 21
218.5
 31
0.0
100
AcDbText
  0
TEXT
  5
32C
330
18
100
AcDbEntity
  8
LEVEL001
 62
     3
370
    20
100
AcDbText
 10
347.0
 20
214.5
 30
0.0
 40
3.0
  1
　　　　３８    －    ○    ○    ○
 41
0.69230769230769
 72
     5
 11
401.0
 21
214.5
 31
0.0
100
AcDbText
  0
TEXT
  5
32D
330
18
100
AcDbEntity
  8
LEVEL001
 62
     3
370
    20
100
AcDbText
 10
347.0
 20
210.5
 30
0.0
 40
3.0
  1
　　　　４０    －    －    ○    ○
 41
0.69230769230769
 72
     5
 11
401.0
 21
210.5
 31
0.0
100
AcDbText
  0
TEXT
  5
32E
330
18
100
AcDbEntity
  8
LEVEL001
 62
     3
370
    20
100
AcDbText
 10
347.0
 20
206.5
 30
0.0
 40
3.0
  1
　　　　４２    －    －    ○    ○
 41
0.69230769230769
 72
     5
 11
401.0
 21
206.5
 31
0.0
100
AcDbText
  0
TEXT
  5
32F
330
18
100
AcDbEntity
  8
LEVEL001
 62
     3
370
    20
100
AcDbText
 10
347.0
 20
202.5
 30
0.0
 40
3.0
  1
　　　　４４    －    －    ○    ○
 41
0.69230769230769
 72
     5
 11
401.0
 21
202.5
 31
0.0
100
AcDbText
  0
TEXT
  5
330
330
18
100
AcDbEntity
  8
LEVEL001
 62
     3
370
    20
100
AcDbText
 10
347.0
 20
198.5
 30
0.0
 40
3.0
  1
　　　　４６    －    －    ○    ○
 41
0.69230769230769
 72
     5
 11
401.0
 21
198.5
 31
0.0
100
AcDbText
  0
TEXT
  5
331
330
18
100
AcDbEntity
  8
LEVEL001
 62
     3
370
    20
100
AcDbText
 10
347.0
 20
190.5
 30
0.0
 40
3.0
  1
注意事項
 72
     5
 11
359.0
 21
190.5
 31
0.0
100
AcDbText
  0
TEXT
  5
332
330
18
100
AcDbEntity
  8
LEVEL001
 62
     3
370
    20
100
AcDbText
 10
347.0
 20
186.5
 30
0.0
 40
3.0
  1
・本製品は旗を掲揚する為のポールです。
 72
     5
 11
404.0
 21
186.5
 31
0.0
100
AcDbText
  0
TEXT
  5
333
330
18
100
AcDbEntity
  8
LEVEL001
 62
     3
370
    20
100
AcDbText
 10
347.0
 20
182.5
 30
0.0
 40
3.0
  1
　旗以外のものは掲揚しないで下さい。
 72
     5
 11
401.0
 21
182.5
 31
0.0
100
AcDbText
  0
TEXT
  5
334
330
18
100
AcDbEntity
  8
LEVEL001
 62
     3
370
    20
100
AcDbText
 10
347.0
 20
178.5
 30
0.0
 40
3.0
  1
　ポール折損の要因となる場合があります。
 72
     5
 11
407.0
 21
178.5
 31
0.0
100
AcDbText
  0
TEXT
  5
335
330
18
100
AcDbEntity
  8
LEVEL001
 62
     3
370
    20
100
AcDbText
 10
347.0
 20
174.5
 30
0.0
 40
3.0
  1
・強風時（瞬間最大風速15m/s時）には旗を
 41
0.88636363636364
 72
     5
 11
405.5
 21
174.5
 31
0.0
100
AcDbText
  0
TEXT
  5
336
330
18
100
AcDbEntity
  8
LEVEL001
 62
     3
370
    20
100
AcDbText
 10
347.0
 20
170.5
 30
0.0
 40
3.0
  1
　取外して下さい。ポール折損の要因となる
 72
     5
 11
407.0
 21
170.5
 31
0.0
100
AcDbText
  0
TEXT
  5
337
330
18
100
AcDbEntity
  8
LEVEL001
 62
     3
370
    20
100
AcDbText
 10
347.0
 20
166.5
 30
0.0
 40
3.0
  1
　場合があります。
 72
     5
 11
374.0
 21
166.5
 31
0.0
100
AcDbText
  0
TEXT
  5
338
330
18
100
AcDbEntity
  8
LEVEL001
 62
     3
370
    20
100
AcDbText
 10
347.0
 20
162.5
 30
0.0
 40
3.0
  1
・毎朝夕の昇降を推奨します。
 72
     5
 11
389.0
 21
162.5
 31
0.0
100
AcDbText
  0
TEXT
  5
339
330
18
100
AcDbEntity
  8
LEVEL001
 62
     3
370
    20
100
AcDbText
 10
347.0
 20
158.5
 30
0.0
 40
3.0
  1
・製品改良のため、一部仕様変更を
 72
     5
 11
395.0
 21
158.5
 31
0.0
100
AcDbText
  0
TEXT
  5
33A
330
18
100
AcDbEntity
  8
LEVEL001
 62
     3
370
    20
100
AcDbText
 10
347.0
 20
154.5
 30
0.0
 40
3.0
  1
　する場合があります。
 72
     5
 11
380.0
 21
154.5
 31
0.0
100
AcDbText
  0
ENDSEC
  0
SECTION
  2
OBJECTS
  0
DICTIONARY
  5
C
330
0
100
AcDbDictionary
281
     1
  3
ACAD_DETAILVIEWSTYLE
350
3BD
  3
ACAD_GROUP
350
D
  3
ACAD_LAYOUT
350
33C
  3
ACAD_MATERIAL
350
37A
  3
ACAD_MLEADERSTYLE
350
3BB
  3
ACAD_MLINESTYLE
350
1B
  3
ACAD_PLOTSTYLENAME
350
37E
  3
ACAD_SCALELIST
350
33F
  3
ACAD_SECTIONVIEWSTYLE
350
3BE
  3
ACAD_TABLESTYLE
350
3BA
  3
ACAD_VISUALSTYLE
350
361
  3
AcDbVariableDictionary
350
382
  0
DICTIONARY
  5
380
330
8
100
AcDbDictionary
280
     1
281
     1
  3
ACAD_XREC_ROUNDTRIP
360
381
  0
DICTIONARY
  5
3BD
102
{ACAD_REACTORS
330
C
102
}
330
C
100
AcDbDictionary
281
     1
  0
DICTIONARY
  5
D
102
{ACAD_REACTORS
330
C
102
}
330
C
100
AcDbDictionary
281
     1
  0
DICTIONARY
  5
33C
102
{ACAD_REACTORS
330
C
102
}
330
C
100
AcDbDictionary
281
     1
  3
Layout1
350
33E
  3
Model
350
33D
  0
DICTIONARY
  5
37A
102
{ACAD_REACTORS
330
C
102
}
330
C
100
AcDbDictionary
281
     1
  3
ByBlock
350
37C
  3
ByLayer
350
37B
  3
Global
350
37D
  0
DICTIONARY
  5
3BB
102
{ACAD_REACTORS
330
C
102
}
330
C
100
AcDbDictionary
281
     1
  0
DICTIONARY
  5
1B
102
{ACAD_REACTORS
330
C
102
}
330
C
100
AcDbDictionary
281
     1
  0
ACDBDICTIONARYWDFLT
  5
37E
102
{ACAD_REACTORS
330
C
102
}
330
C
100
AcDbDictionary
281
     1
  3
Normal
350
37F
100
AcDbDictionaryWithDefault
340
37F
  0
DICTIONARY
  5
33F
102
{ACAD_REACTORS
330
C
102
}
330
C
100
AcDbDictionary
281
     1
  3
A0
350
340
  3
A1
350
341
  3
A2
350
342
  3
A3
350
343
  3
A4
350
344
  3
A5
350
345
  3
A6
350
346
  3
A7
350
347
  3
A8
350
348
  3
A9
350
349
  3
B0
350
34A
  3
B1
350
34B
  3
B2
350
34C
  3
B3
350
34D
  3
B4
350
34E
  3
B5
350
34F
  3
B6
350
350
  3
B7
350
351
  3
B8
350
352
  3
B9
350
353
  3
C0
350
354
  3
C1
350
355
  3
C2
350
356
  3
C3
350
357
  3
C4
350
358
  3
C5
350
359
  3
C6
350
35A
  3
C7
350
35B
  3
C8
350
35C
  3
C9
350
35D
  3
D0
350
35E
  3
D1
350
35F
  3
D2
350
360
  0
DICTIONARY
  5
3BE
102
{ACAD_REACTORS
330
C
102
}
330
C
100
AcDbDictionary
281
     1
  0
DICTIONARY
  5
3BA
102
{ACAD_REACTORS
330
C
102
}
330
C
100
AcDbDictionary
281
     1
  0
DICTIONARY
  5
361
102
{ACAD_REACTORS
330
C
102
}
330
C
100
AcDbDictionary
281
     1
  3
2dWireframe
350
366
  3
Basic
350
369
  3
Brighten
350
36D
  3
ColorChange
350
371
  3
Conceptual
350
36B
  3
Dim
350
36C
  3
EdgeColorOff
350
374
  3
Facepattern
350
370
  3
Flat
350
362
  3
FlatWithEdges
350
363
  3
Gouraud
350
364
  3
GouraudWithEdges
350
365
  3
Hidden
350
368
  3
JitterOff
350
372
  3
Linepattern
350
36F
  3
OverhangOff
350
373
  3
Realistic
350
36A
  3
Shaded
350
379
  3
Shaded with edges
350
378
  3
Shades of Gray
350
375
  3
Sketchy
350
376
  3
Thicken
350
36E
  3
Wireframe
350
367
  3
X-Ray
350
377
  0
DICTIONARY
  5
382
102
{ACAD_REACTORS
330
C
102
}
330
C
100
AcDbDictionary
281
     1
  3
CANNOSCALE
350
383
  3
MSLTSCALE
350
3BC
  0
XRECORD
  5
381
102
{ACAD_REACTORS
330
380
102
}
330
380
100
AcDbXrecord
280
     1
102
VTR_0.000_0.000_1.000_1.000_VISUALSTYLE
340
366
102
VTR_0.000_0.000_1.000_1.000_GRIDDISPLAY
 70
     3
102
VTR_0.000_0.000_1.000_1.000_GRIDMAJOR
 70
     5
102
VTR_0.000_0.000_1.000_1.000_DEFAULTLIGHTING
280
     1
102
VTR_0.000_0.000_1.000_1.000_DEFAULTLIGHTINGTYPE
 70
     1
102
VTR_0.000_0.000_1.000_1.000_BRIGHTNESS
141
0.0
102
VTR_0.000_0.000_1.000_1.000_CONTRAST
142
0.0
  0
LAYOUT
  5
33E
102
{ACAD_REACTORS
330
33C
102
}
330
33C
100
AcDbPlotSettings
  1

  2
none_device
  4

  6

 40
0.0
 41
0.0
 42
0.0
 43
0.0
 44
0.0
 45
0.0
 46
0.0
 47
0.0
 48
0.0
 49
0.0
140
0.0
141
0.0
142
1.0
143
1.0
 70
   688
 72
     0
 73
     0
 74
     5
  7

 75
    16
 76
     0
 77
     2
 78
   300
147
1.0
148
0.0
149
0.0
100
AcDbLayout
  1
Layout1
 70
     1
 71
     1
 10
0.0
 20
0.0
 11
12.0
 21
9.0
 12
0.0
 22
0.0
 32
0.0
 14
1.000000000000000E+20
 24
1.000000000000000E+20
 34
1.000000000000000E+20
 15
-1.000000000000000E+20
 25
-1.000000000000000E+20
 35
-1.000000000000000E+20
146
0.0
 13
0.0
 23
0.0
 33
0.0
 16
1.0
 26
0.0
 36
0.0
 17
0.0
 27
1.0
 37
0.0
 76
     0
330
15
  0
LAYOUT
  5
33D
102
{ACAD_REACTORS
330
33C
102
}
330
33C
100
AcDbPlotSettings
  1

  2
none_device
  4
Letter_(8.50_x_11.00_Inches)
  6

 40
6.35
 41
6.35
 42
6.35000508
 43
6.35000508
 44
215.9
 45
279.4
 46
0.0
 47
0.0
 48
0.0
 49
0.0
140
0.0
141
0.0
142
1.0
143
77.63636557727389
 70
  1712
 72
     0
 73
     0
 74
     0
  7

 75
     0
 76
     0
 77
     2
 78
   300
147
0.0128805617388757
148
2553.854545454658
149
1562.1
100
AcDbLayout
  1
Model
 70
     1
 71
     0
 10
0.0
 20
0.0
 11
420.0
 21
297.0
 12
0.0
 22
0.0
 32
0.0
 14
0.0
 24
0.0
 34
0.0
 15
420.0
 25
297.0
 35
0.0
146
0.0
 13
0.0
 23
0.0
 33
0.0
 16
1.0
 26
0.0
 36
0.0
 17
0.0
 27
1.0
 37
0.0
 76
     0
330
18
331
33B
  0
MATERIAL
  5
37C
102
{ACAD_REACTORS
330
37A
102
}
102
{ACAD_XDICTIONARY
360
3B6
102
}
330
37A
100
AcDbMaterial
  1
ByBlock
  0
MATERIAL
  5
37B
102
{ACAD_REACTORS
330
37A
102
}
102
{ACAD_XDICTIONARY
360
3B4
102
}
330
37A
100
AcDbMaterial
  1
ByLayer
  0
MATERIAL
  5
37D
102
{ACAD_REACTORS
330
37A
102
}
102
{ACAD_XDICTIONARY
360
3B8
102
}
330
37A
100
AcDbMaterial
  1
Global
  0
ACDBPLACEHOLDER
  5
37F
102
{ACAD_REACTORS
330
37E
102
}
330
37E
  0
SCALE
  5
340
102
{ACAD_REACTORS
330
33F
102
}
330
33F
100
AcDbScale
 70
     0
300
1:1
140
1.0
141
1.0
290
     1
  0
SCALE
  5
341
102
{ACAD_REACTORS
330
33F
102
}
330
33F
100
AcDbScale
 70
     0
300
1:2
140
1.0
141
2.0
290
     0
  0
SCALE
  5
342
102
{ACAD_REACTORS
330
33F
102
}
330
33F
100
AcDbScale
 70
     0
300
1:4
140
1.0
141
4.0
290
     0
  0
SCALE
  5
343
102
{ACAD_REACTORS
330
33F
102
}
330
33F
100
AcDbScale
 70
     0
300
1:5
140
1.0
141
5.0
290
     0
  0
SCALE
  5
344
102
{ACAD_REACTORS
330
33F
102
}
330
33F
100
AcDbScale
 70
     0
300
1:8
140
1.0
141
8.0
290
     0
  0
SCALE
  5
345
102
{ACAD_REACTORS
330
33F
102
}
330
33F
100
AcDbScale
 70
     0
300
1:10
140
1.0
141
10.0
290
     0
  0
SCALE
  5
346
102
{ACAD_REACTORS
330
33F
102
}
330
33F
100
AcDbScale
 70
     0
300
1:16
140
1.0
141
16.0
290
     0
  0
SCALE
  5
347
102
{ACAD_REACTORS
330
33F
102
}
330
33F
100
AcDbScale
 70
     0
300
1:20
140
1.0
141
20.0
290
     0
  0
SCALE
  5
348
102
{ACAD_REACTORS
330
33F
102
}
330
33F
100
AcDbScale
 70
     0
300
1:30
140
1.0
141
30.0
290
     0
  0
SCALE
  5
349
102
{ACAD_REACTORS
330
33F
102
}
330
33F
100
AcDbScale
 70
     0
300
1:40
140
1.0
141
40.0
290
     0
  0
SCALE
  5
34A
102
{ACAD_REACTORS
330
33F
102
}
330
33F
100
AcDbScale
 70
     0
300
1:50
140
1.0
141
50.0
290
     0
  0
SCALE
  5
34B
102
{ACAD_REACTORS
330
33F
102
}
330
33F
100
AcDbScale
 70
     0
300
1:100
140
1.0
141
100.0
290
     0
  0
SCALE
  5
34C
102
{ACAD_REACTORS
330
33F
102
}
330
33F
100
AcDbScale
 70
     0
300
2:1
140
2.0
141
1.0
290
     0
  0
SCALE
  5
34D
102
{ACAD_REACTORS
330
33F
102
}
330
33F
100
AcDbScale
 70
     0
300
4:1
140
4.0
141
1.0
290
     0
  0
SCALE
  5
34E
102
{ACAD_REACTORS
330
33F
102
}
330
33F
100
AcDbScale
 70
     0
300
8:1
140
8.0
141
1.0
290
     0
  0
SCALE
  5
34F
102
{ACAD_REACTORS
330
33F
102
}
330
33F
100
AcDbScale
 70
     0
300
10:1
140
10.0
141
1.0
290
     0
  0
SCALE
  5
350
102
{ACAD_REACTORS
330
33F
102
}
330
33F
100
AcDbScale
 70
     0
300
100:1
140
100.0
141
1.0
290
     0
  0
SCALE
  5
351
102
{ACAD_REACTORS
330
33F
102
}
330
33F
100
AcDbScale
 70
     0
300
1/128" = 1'-0"
140
0.0078125
141
12.0
290
     0
  0
SCALE
  5
352
102
{ACAD_REACTORS
330
33F
102
}
330
33F
100
AcDbScale
 70
     0
300
1/64" = 1'-0"
140
0.015625
141
12.0
290
     0
  0
SCALE
  5
353
102
{ACAD_REACTORS
330
33F
102
}
330
33F
100
AcDbScale
 70
     0
300
1/32" = 1'-0"
140
0.03125
141
12.0
290
     0
  0
SCALE
  5
354
102
{ACAD_REACTORS
330
33F
102
}
330
33F
100
AcDbScale
 70
     0
300
1/16" = 1'-0"
140
0.0625
141
12.0
290
     0
  0
SCALE
  5
355
102
{ACAD_REACTORS
330
33F
102
}
330
33F
100
AcDbScale
 70
     0
300
3/32" = 1'-0"
140
0.09375
141
12.0
290
     0
  0
SCALE
  5
356
102
{ACAD_REACTORS
330
33F
102
}
330
33F
100
AcDbScale
 70
     0
300
1/8" = 1'-0"
140
0.125
141
12.0
290
     0
  0
SCALE
  5
357
102
{ACAD_REACTORS
330
33F
102
}
330
33F
100
AcDbScale
 70
     0
300
3/16" = 1'-0"
140
0.1875
141
12.0
290
     0
  0
SCALE
  5
358
102
{ACAD_REACTORS
330
33F
102
}
330
33F
100
AcDbScale
 70
     0
300
1/4" = 1'-0"
140
0.25
141
12.0
290
     0
  0
SCALE
  5
359
102
{ACAD_REACTORS
330
33F
102
}
330
33F
100
AcDbScale
 70
     0
300
3/8" = 1'-0"
140
0.375
141
12.0
290
     0
  0
SCALE
  5
35A
102
{ACAD_REACTORS
330
33F
102
}
330
33F
100
AcDbScale
 70
     0
300
1/2" = 1'-0"
140
0.5
141
12.0
290
     0
  0
SCALE
  5
35B
102
{ACAD_REACTORS
330
33F
102
}
330
33F
100
AcDbScale
 70
     0
300
3/4" = 1'-0"
140
0.75
141
12.0
290
     0
  0
SCALE
  5
35C
102
{ACAD_REACTORS
330
33F
102
}
330
33F
100
AcDbScale
 70
     0
300
1" = 1'-0"
140
1.0
141
12.0
290
     0
  0
SCALE
  5
35D
102
{ACAD_REACTORS
330
33F
102
}
330
33F
100
AcDbScale
 70
     0
300
1-1/2" = 1'-0"
140
1.5
141
12.0
290
     0
  0
SCALE
  5
35E
102
{ACAD_REACTORS
330
33F
102
}
330
33F
100
AcDbScale
 70
     0
300
3" = 1'-0"
140
3.0
141
12.0
290
     0
  0
SCALE
  5
35F
102
{ACAD_REACTORS
330
33F
102
}
330
33F
100
AcDbScale
 70
     0
300
6" = 1'-0"
140
6.0
141
12.0
290
     0
  0
SCALE
  5
360
102
{ACAD_REACTORS
330
33F
102
}
330
33F
100
AcDbScale
 70
     0
300
1'-0" = 1'-0"
140
12.0
141
12.0
290
     0
  0
VISUALSTYLE
  5
366
102
{ACAD_REACTORS
330
361
102
}
102
{ACAD_XDICTIONARY
360
38C
102
}
330
361
100
AcDbVisualStyle
  2
2dWireframe
 70
     4
 71
     0
 72
     2
 73
     0
 90
        0
 40
0.6
 41
30.0
 62
     5
 63
     7
421
 16777215
 74
     1
 91
        4
 64
     7
 65
   257
 75
     1
175
     1
 42
1.0
 92
        0
 66
   257
 43
1.0
 76
     1
 77
     6
 78
     2
 67
     7
 79
     5
170
     0
171
     0
290
     0
174
     0
 93
        1
 44
0.0
173
     0
291
     0
 45
0.0
1001
ACAD
1000
AcDbSavedByObjectVersion
1070
     0
  0
VISUALSTYLE
  5
369
102
{ACAD_REACTORS
330
361
102
}
102
{ACAD_XDICTIONARY
360
392
102
}
330
361
100
AcDbVisualStyle
  2
Basic
 70
     7
 71
     1
 72
     0
 73
     1
 90
        0
 40
0.6
 41
30.0
 62
     5
 63
     7
421
 16777215
 74
     0
 91
        4
 64
     7
 65
   257
 75
     1
175
     1
 42
1.0
 92
        8
 66
     7
 43
1.0
 76
     1
 77
     6
 78
     2
 67
     7
 79
     5
170
     0
171
     0
290
     0
174
     0
 93
        1
 44
0.0
173
     0
291
     1
 45
0.0
1001
ACAD
1000
AcDbSavedByObjectVersion
1070
     0
  0
VISUALSTYLE
  5
36D
102
{ACAD_REACTORS
330
361
102
}
102
{ACAD_XDICTIONARY
360
39A
102
}
330
361
100
AcDbVisualStyle
  2
Brighten
 70
    12
 71
     2
 72
     2
 73
     0
 90
        0
 40
0.6
 41
30.0
 62
     5
 63
     7
421
 16777215
 74
     1
 91
        4
 64
     7
 65
   257
 75
     1
175
     1
 42
1.0
 92
        8
 66
     7
 43
1.0
 76
     1
 77
     6
 78
     2
 67
     7
 79
     5
170
     0
171
     0
290
     0
174
     0
 93
        1
 44
50.0
173
     0
291
     1
 45
0.0
1001
ACAD
1000
AcDbSavedByObjectVersion
1070
     0
  0
VISUALSTYLE
  5
371
102
{ACAD_REACTORS
330
361
102
}
102
{ACAD_XDICTIONARY
360
3A2
102
}
330
361
100
AcDbVisualStyle
  2
ColorChange
 70
    16
 71
     2
 72
     2
 73
     3
 90
        0
 40
0.6
 41
30.0
 62
     5
 63
     8
421
  8421504
 74
     1
 91
        4
 64
     7
 65
   257
 75
     1
175
     1
 42
1.0
 92
        8
 66
     8
424
  8421504
 43
1.0
 76
     1
 77
     6
 78
     2
 67
     7
 79
     5
170
     0
171
     0
290
     0
174
     0
 93
        1
 44
0.0
173
     0
291
     1
 45
0.0
1001
ACAD
1000
AcDbSavedByObjectVersion
1070
     0
  0
VISUALSTYLE
  5
36B
102
{ACAD_REACTORS
330
361
102
}
102
{ACAD_XDICTIONARY
360
396
102
}
330
361
100
AcDbVisualStyle
  2
Conceptual
 70
     9
 71
     3
 72
     2
 73
     0
 90
        0
 40
0.6
 41
30.0
 62
     5
 63
     7
421
 16777215
 74
     2
 91
        2
 64
     7
 65
   257
 75
     1
175
     1
 42
179.0
 92
        8
 66
     7
 43
1.0
 76
     1
 77
     6
 78
     2
 67
     7
 79
     3
170
     0
171
     0
290
     0
174
     0
 93
        1
 44
0.0
173
     0
291
     0
 45
0.0
1001
ACAD
1000
AcDbSavedByObjectVersion
1070
     0
  0
VISUALSTYLE
  5
36C
102
{ACAD_REACTORS
330
361
102
}
102
{ACAD_XDICTIONARY
360
398
102
}
330
361
100
AcDbVisualStyle
  2
Dim
 70
    11
 71
     2
 72
     2
 73
     0
 90
        0
 40
0.6
 41
30.0
 62
     5
 63
     7
421
 16777215
 74
     1
 91
        4
 64
     7
 65
   257
 75
     1
175
     1
 42
1.0
 92
        8
 66
     7
 43
1.0
 76
     1
 77
     6
 78
     2
 67
     7
 79
     5
170
     0
171
     0
290
     0
174
     0
 93
        1
 44
-50.0
173
     0
291
     1
 45
0.0
1001
ACAD
1000
AcDbSavedByObjectVersion
1070
     0
  0
VISUALSTYLE
  5
374
102
{ACAD_REACTORS
330
361
102
}
102
{ACAD_XDICTIONARY
360
3A8
102
}
330
361
100
AcDbVisualStyle
  2
EdgeColorOff
 70
    22
 71
     2
 72
     2
 73
     0
 90
        0
 40
0.6
 41
30.0
 62
     5
 63
     7
421
 16777215
 74
     1
 91
        4
 64
     7
 65
   257
 75
     1
175
     1
 42
1.0
 92
        8
 66
     7
 43
1.0
 76
     1
 77
     6
 78
     2
 67
     7
 79
     5
170
     0
171
     0
290
     0
174
     0
 93
        1
 44
0.0
173
     0
291
     1
 45
0.0
1001
ACAD
1000
AcDbSavedByObjectVersion
1070
     0
  0
VISUALSTYLE
  5
370
102
{ACAD_REACTORS
330
361
102
}
102
{ACAD_XDICTIONARY
360
3A0
102
}
330
361
100
AcDbVisualStyle
  2
Facepattern
 70
    15
 71
     2
 72
     2
 73
     0
 90
        0
 40
0.6
 41
30.0
 62
     5
 63
     7
421
 16777215
 74
     1
 91
        4
 64
     7
 65
   257
 75
     1
175
     1
 42
1.0
 92
        8
 66
     7
 43
1.0
 76
     1
 77
     6
 78
     2
 67
     7
 79
     5
170
     0
171
     0
290
     0
174
     0
 93
        1
 44
0.0
173
     0
291
     1
 45
0.0
1001
ACAD
1000
AcDbSavedByObjectVersion
1070
     0
  0
VISUALSTYLE
  5
362
102
{ACAD_REACTORS
330
361
102
}
102
{ACAD_XDICTIONARY
360
384
102
}
330
361
100
AcDbVisualStyle
  2
Flat
 70
     0
 71
     2
 72
     1
 73
     1
 90
        2
 40
0.6
 41
30.0
 62
     5
 63
     7
421
 16777215
 74
     0
 91
        0
 64
     7
 65
   257
 75
     1
175
     1
 42
1.0
 92
        8
 66
     7
 43
1.0
 76
     1
 77
     6
 78
     2
 67
     7
 79
     5
170
     0
171
     0
290
     0
174
     0
 93
       13
 44
0.0
173
     0
291
     1
 45
0.0
1001
ACAD
1000
AcDbSavedByObjectVersion
1070
     0
  0
VISUALSTYLE
  5
363
102
{ACAD_REACTORS
330
361
102
}
102
{ACAD_XDICTIONARY
360
386
102
}
330
361
100
AcDbVisualStyle
  2
FlatWithEdges
 70
     1
 71
     2
 72
     1
 73
     1
 90
        2
 40
0.6
 41
30.0
 62
     5
 63
     7
421
 16777215
 74
     1
 91
        0
 64
     7
 65
   257
 75
     1
175
     1
 42
1.0
 92
        0
 66
   257
 43
1.0
 76
     1
 77
     6
 78
     2
 67
     7
 79
     5
170
     0
171
     0
290
     0
174
     0
 93
       13
 44
0.0
173
     0
291
     1
 45
0.0
1001
ACAD
1000
AcDbSavedByObjectVersion
1070
     0
  0
VISUALSTYLE
  5
364
102
{ACAD_REACTORS
330
361
102
}
102
{ACAD_XDICTIONARY
360
388
102
}
330
361
100
AcDbVisualStyle
  2
Gouraud
 70
     2
 71
     2
 72
     2
 73
     1
 90
        2
 40
0.6
 41
30.0
 62
     5
 63
     7
421
 16777215
 74
     0
 91
        0
 64
     7
 65
   257
 75
     1
175
     1
 42
1.0
 92
        0
 66
     7
 43
1.0
 76
     1
 77
     6
 78
     2
 67
     7
 79
     5
170
     0
171
     0
290
     0
174
     0
 93
       13
 44
0.0
173
     0
291
     1
 45
0.0
1001
ACAD
1000
AcDbSavedByObjectVersion
1070
     0
  0
VISUALSTYLE
  5
365
102
{ACAD_REACTORS
330
361
102
}
102
{ACAD_XDICTIONARY
360
38A
102
}
330
361
100
AcDbVisualStyle
  2
GouraudWithEdges
 70
     3
 71
     2
 72
     2
 73
     1
 90
        2
 40
0.6
 41
30.0
 62
     5
 63
     7
421
 16777215
 74
     1
 91
        0
 64
     7
 65
   257
 75
     1
175
     1
 42
1.0
 92
        0
 66
   257
 43
1.0
 76
     1
 77
     6
 78
     2
 67
     7
 79
     5
170
     0
171
     0
290
     0
174
     0
 93
       13
 44
0.0
173
     0
291
     1
 45
0.0
1001
ACAD
1000
AcDbSavedByObjectVersion
1070
     0
  0
VISUALSTYLE
  5
368
102
{ACAD_REACTORS
330
361
102
}
102
{ACAD_XDICTIONARY
360
390
102
}
330
361
100
AcDbVisualStyle
  2
Hidden
 70
     6
 71
     1
 72
     2
 73
     2
 90
        0
 40
0.6
 41
30.0
 62
     5
 63
     7
421
 16777215
 74
     2
 91
        2
 64
     7
 65
   257
 75
     2
175
     1
 42
40.0
 92
        0
 66
   257
 43
1.0
 76
     1
 77
     6
 78
     2
 67
     7
 79
     3
170
     0
171
     0
290
     0
174
     0
 93
        1
 44
0.0
173
     0
291
     0
 45
0.0
1001
ACAD
1000
AcDbSavedByObjectVersion
1070
     0
  0
VISUALSTYLE
  5
372
102
{ACAD_REACTORS
330
361
102
}
102
{ACAD_XDICTIONARY
360
3A4
102
}
330
361
100
AcDbVisualStyle
  2
JitterOff
 70
    20
 71
     2
 72
     2
 73
     0
 90
        0
 40
0.6
 41
30.0
 62
     5
 63
     7
421
 16777215
 74
     1
 91
        4
 64
     7
 65
   257
 75
     1
175
     1
 42
1.0
 92
       10
 66
     7
 43
1.0
 76
     1
 77
     6
 78
     2
 67
     7
 79
     5
170
     0
171
     0
290
     0
174
     0
 93
        1
 44
0.0
173
     0
291
     1
 45
0.0
1001
ACAD
1000
AcDbSavedByObjectVersion
1070
     0
  0
VISUALSTYLE
  5
36F
102
{ACAD_REACTORS
330
361
102
}
102
{ACAD_XDICTIONARY
360
39E
102
}
330
361
100
AcDbVisualStyle
  2
Linepattern
 70
    14
 71
     2
 72
     2
 73
     0
 90
        0
 40
0.6
 41
30.0
 62
     5
 63
     7
421
 16777215
 74
     1
 91
        4
 64
     7
 65
   257
 75
     7
175
     7
 42
1.0
 92
        8
 66
     7
 43
1.0
 76
     1
 77
     6
 78
     2
 67
     7
 79
     5
170
     0
171
     0
290
     0
174
     0
 93
        1
 44
0.0
173
     0
291
     1
 45
0.0
1001
ACAD
1000
AcDbSavedByObjectVersion
1070
     0
  0
VISUALSTYLE
  5
373
102
{ACAD_REACTORS
330
361
102
}
102
{ACAD_XDICTIONARY
360
3A6
102
}
330
361
100
AcDbVisualStyle
  2
OverhangOff
 70
    21
 71
     2
 72
     2
 73
     0
 90
        0
 40
0.6
 41
30.0
 62
     5
 63
     7
421
 16777215
 74
     1
 91
        4
 64
     7
 65
   257
 75
     1
175
     1
 42
1.0
 92
        9
 66
     7
 43
1.0
 76
     1
 77
     6
 78
     2
 67
     7
 79
     5
170
     0
171
     0
290
     0
174
     0
 93
        1
 44
0.0
173
     0
291
     1
 45
0.0
1001
ACAD
1000
AcDbSavedByObjectVersion
1070
     0
  0
VISUALSTYLE
  5
36A
102
{ACAD_REACTORS
330
361
102
}
102
{ACAD_XDICTIONARY
360
394
102
}
330
361
100
AcDbVisualStyle
  2
Realistic
 70
     8
 71
     2
 72
     3
 73
     0
 90
        2
 40
0.6
 41
30.0
 62
     5
 63
     7
421
 16777215
 74
     0
 91
        0
 64
     7
 65
   257
 75
     1
175
     1
 42
1.0
 92
        8
 66
   257
 43
1.0
 76
     1
 77
     6
 78
     2
 67
     7
 79
     3
170
     0
171
     0
290
     0
174
     0
 93
       13
 44
0.0
173
     0
291
     0
 45
0.0
1001
ACAD
1000
AcDbSavedByObjectVersion
1070
     0
  0
VISUALSTYLE
  5
379
102
{ACAD_REACTORS
330
361
102
}
102
{ACAD_XDICTIONARY
360
3B2
102
}
330
361
100
AcDbVisualStyle
  2
Shaded
 70
    27
 71
     2
 72
     2
 73
     1
 90
        2
 40
0.6
 41
30.0
 62
     5
 63
     7
421
 16777215
 74
     0
 91
        4
 64
     7
 65
   257
 75
     1
175
     1
 42
1.0
 92
        8
 66
   257
 43
1.0
 76
     1
 77
     6
 78
     2
 67
     8
425
  7895160
 79
     3
170
     0
171
     0
290
     0
174
     0
 93
        5
 44
0.0
173
     0
291
     0
 45
0.0
1001
ACAD
1000
AcDbSavedByObjectVersion
1070
     0
  0
VISUALSTYLE
  5
378
102
{ACAD_REACTORS
330
361
102
}
102
{ACAD_XDICTIONARY
360
3B0
102
}
330
361
100
AcDbVisualStyle
  2
Shaded with edges
 70
    26
 71
     2
 72
     2
 73
     1
 90
        2
 40
0.6
 41
30.0
 62
     5
 63
     7
421
 16777215
 74
     1
 91
       10
 64
     7
 65
   257
 75
     2
175
     1
 42
1.0
 92
        8
 66
   257
 43
1.0
 76
     1
 77
     6
 78
     2
 67
     7
 79
     3
170
     0
171
     0
290
     0
174
     0
 93
        5
 44
0.0
173
     0
291
     0
 45
0.0
1001
ACAD
1000
AcDbSavedByObjectVersion
1070
     0
  0
VISUALSTYLE
  5
375
102
{ACAD_REACTORS
330
361
102
}
102
{ACAD_XDICTIONARY
360
3AA
102
}
330
361
100
AcDbVisualStyle
  2
Shades of Gray
 70
    23
 71
     2
 72
     2
 73
     3
 90
        0
 40
0.6
 41
30.0
 62
     5
 63
     7
421
 16777215
 74
     2
 91
        2
 64
     7
 65
     7
 75
     1
175
     1
 42
40.0
 92
        8
 66
     7
 43
1.0
 76
     1
 77
     6
 78
     2
 67
     7
 79
     3
170
     0
171
     0
290
     0
174
     0
 93
        1
 44
0.0
173
     0
291
     0
 45
0.0
1001
ACAD
1000
AcDbSavedByObjectVersion
1070
     0
  0
VISUALSTYLE
  5
376
102
{ACAD_REACTORS
330
361
102
}
102
{ACAD_XDICTIONARY
360
3AC
102
}
330
361
100
AcDbVisualStyle
  2
Sketchy
 70
    24
 71
     1
 72
     2
 73
     2
 90
        0
 40
0.6
 41
30.0
 62
     5
 63
     7
421
 16777215
 74
     2
 91
        2
 64
     7
 65
     7
 75
     1
175
     1
 42
40.0
 92
       11
 66
     7
 43
1.0
 76
     1
 77
     6
 78
     2
 67
     7
 79
     6
170
     0
171
     0
290
     0
174
     0
 93
        1
 44
0.0
173
     0
291
     0
 45
0.0
1001
ACAD
1000
AcDbSavedByObjectVersion
1070
     0
  0
VISUALSTYLE
  5
36E
102
{ACAD_REACTORS
330
361
102
}
102
{ACAD_XDICTIONARY
360
39C
102
}
330
361
100
AcDbVisualStyle
  2
Thicken
 70
    13
 71
     2
 72
     2
 73
     0
 90
        0
 40
0.6
 41
30.0
 62
     5
 63
     7
421
 16777215
 74
     1
 91
        4
 64
     7
 65
   257
 75
     1
175
     1
 42
1.0
 92
       12
 66
     7
 43
1.0
 76
     1
 77
     6
 78
     2
 67
     7
 79
     5
170
     0
171
     0
290
     0
174
     0
 93
        1
 44
0.0
173
     0
291
     1
 45
0.0
1001
ACAD
1000
AcDbSavedByObjectVersion
1070
     0
  0
VISUALSTYLE
  5
367
102
{ACAD_REACTORS
330
361
102
}
102
{ACAD_XDICTIONARY
360
38E
102
}
330
361
100
AcDbVisualStyle
  2
Wireframe
 70
     5
 71
     0
 72
     2
 73
     0
 90
        0
 40
0.6
 41
30.0
 62
     5
 63
     7
421
 16777215
 74
     1
 91
        4
 64
     7
 65
   257
 75
     1
175
     1
 42
1.0
 92
        0
 66
   257
 43
1.0
 76
     1
 77
     6
 78
     2
 67
     7
 79
     3
170
     0
171
     0
290
     0
174
     0
 93
        1
 44
0.0
173
     0
291
     0
 45
0.0
1001
ACAD
1000
AcDbSavedByObjectVersion
1070
     0
  0
VISUALSTYLE
  5
377
102
{ACAD_REACTORS
330
361
102
}
102
{ACAD_XDICTIONARY
360
3AE
102
}
330
361
100
AcDbVisualStyle
  2
X-Ray
 70
    25
 71
     2
 72
     2
 73
     1
 90
        1
 40
0.5
 41
30.0
 62
     5
 63
     7
421
 16777215
 74
     1
 91
        0
 64
     7
 65
   257
 75
     1
175
     1
 42
1.0
 92
        8
 66
     7
 43
1.0
 76
     1
 77
     6
 78
     2
 67
     7
 79
     3
170
     0
171
     0
290
     0
174
     0
 93
       13
 44
0.0
173
     0
291
     0
 45
0.0
1001
ACAD
1000
AcDbSavedByObjectVersion
1070
     0
  0
DICTIONARYVAR
  5
383
102
{ACAD_REACTORS
330
382
102
}
330
382
100
DictionaryVariables
280
     0
  1
1:1
  0
DICTIONARYVAR
  5
3BC
102
{ACAD_REACTORS
330
382
102
}
330
382
100
DictionaryVariables
280
     0
  1
0
  0
DICTIONARY
  5
3B6
330
37C
100
AcDbDictionary
280
     1
281
     1
  3
ACAD_XREC_ROUNDTRIP
360
3B7
  0
DICTIONARY
  5
3B4
330
37B
100
AcDbDictionary
280
     1
281
     1
  3
ACAD_XREC_ROUNDTRIP
360
3B5
  0
DICTIONARY
  5
3B8
330
37D
100
AcDbDictionary
280
     1
281
     1
  3
ACAD_XREC_ROUNDTRIP
360
3B9
  0
DICTIONARY
  5
38C
330
366
100
AcDbDictionary
280
     1
281
     1
  3
ACAD_XREC_ROUNDTRIP
360
38D
  0
DICTIONARY
  5
392
330
369
100
AcDbDictionary
280
     1
281
     1
  3
ACAD_XREC_ROUNDTRIP
360
393
  0
DICTIONARY
  5
39A
330
36D
100
AcDbDictionary
280
     1
281
     1
  3
ACAD_XREC_ROUNDTRIP
360
39B
  0
DICTIONARY
  5
3A2
330
371
100
AcDbDictionary
280
     1
281
     1
  3
ACAD_XREC_ROUNDTRIP
360
3A3
  0
DICTIONARY
  5
396
330
36B
100
AcDbDictionary
280
     1
281
     1
  3
ACAD_XREC_ROUNDTRIP
360
397
  0
DICTIONARY
  5
398
330
36C
100
AcDbDictionary
280
     1
281
     1
  3
ACAD_XREC_ROUNDTRIP
360
399
  0
DICTIONARY
  5
3A8
330
374
100
AcDbDictionary
280
     1
281
     1
  3
ACAD_XREC_ROUNDTRIP
360
3A9
  0
DICTIONARY
  5
3A0
330
370
100
AcDbDictionary
280
     1
281
     1
  3
ACAD_XREC_ROUNDTRIP
360
3A1
  0
DICTIONARY
  5
384
330
362
100
AcDbDictionary
280
     1
281
     1
  3
ACAD_XREC_ROUNDTRIP
360
385
  0
DICTIONARY
  5
386
330
363
100
AcDbDictionary
280
     1
281
     1
  3
ACAD_XREC_ROUNDTRIP
360
387
  0
DICTIONARY
  5
388
330
364
100
AcDbDictionary
280
     1
281
     1
  3
ACAD_XREC_ROUNDTRIP
360
389
  0
DICTIONARY
  5
38A
330
365
100
AcDbDictionary
280
     1
281
     1
  3
ACAD_XREC_ROUNDTRIP
360
38B
  0
DICTIONARY
  5
390
330
368
100
AcDbDictionary
280
     1
281
     1
  3
ACAD_XREC_ROUNDTRIP
360
391
  0
DICTIONARY
  5
3A4
330
372
100
AcDbDictionary
280
     1
281
     1
  3
ACAD_XREC_ROUNDTRIP
360
3A5
  0
DICTIONARY
  5
39E
330
36F
100
AcDbDictionary
280
     1
281
     1
  3
ACAD_XREC_ROUNDTRIP
360
39F
  0
DICTIONARY
  5
3A6
330
373
100
AcDbDictionary
280
     1
281
     1
  3
ACAD_XREC_ROUNDTRIP
360
3A7
  0
DICTIONARY
  5
394
330
36A
100
AcDbDictionary
280
     1
281
     1
  3
ACAD_XREC_ROUNDTRIP
360
395
  0
DICTIONARY
  5
3B2
330
379
100
AcDbDictionary
280
     1
281
     1
  3
ACAD_XREC_ROUNDTRIP
360
3B3
  0
DICTIONARY
  5
3B0
330
378
100
AcDbDictionary
280
     1
281
     1
  3
ACAD_XREC_ROUNDTRIP
360
3B1
  0
DICTIONARY
  5
3AA
330
375
100
AcDbDictionary
280
     1
281
     1
  3
ACAD_XREC_ROUNDTRIP
360
3AB
  0
DICTIONARY
  5
3AC
330
376
100
AcDbDictionary
280
     1
281
     1
  3
ACAD_XREC_ROUNDTRIP
360
3AD
  0
DICTIONARY
  5
39C
330
36E
100
AcDbDictionary
280
     1
281
     1
  3
ACAD_XREC_ROUNDTRIP
360
39D
  0
DICTIONARY
  5
38E
330
367
100
AcDbDictionary
280
     1
281
     1
  3
ACAD_XREC_ROUNDTRIP
360
38F
  0
DICTIONARY
  5
3AE
330
377
100
AcDbDictionary
280
     1
281
     1
  3
ACAD_XREC_ROUNDTRIP
360
3AF
  0
XRECORD
  5
3B7
102
{ACAD_REACTORS
330
3B6
102
}
330
3B6
100
AcDbXrecord
280
     1
102
MATERIAL
148
0.0
149
0.0
149
0.0
 93
        0
 94
      127
282
     0
 72
     1
 77
     1
171
     1
175
     1
179
     1
273
     0
  0
XRECORD
  5
3B5
102
{ACAD_REACTORS
330
3B4
102
}
330
3B4
100
AcDbXrecord
280
     1
102
MATERIAL
148
0.0
149
0.0
149
0.0
 93
        0
 94
      127
282
     0
 72
     1
 77
     1
171
     1
175
     1
179
     1
273
     0
  0
XRECORD
  5
3B9
102
{ACAD_REACTORS
330
3B8
102
}
330
3B8
100
AcDbXrecord
280
     1
102
MATERIAL
148
0.0
149
0.0
149
0.0
 93
        0
 94
      127
282
     0
 72
     1
 77
     1
171
     1
175
     1
179
     1
273
     0
  0
XRECORD
  5
38D
102
{ACAD_REACTORS
330
38C
102
}
330
38C
100
AcDbXrecord
280
     1
102
RTVSPropertyOp0
 70
     1
102
RTVSPropertyOp1
 70
     1
102
RTVSPropertyOp2
 70
     1
102
RTVSPropertyOp3
 70
     1
102
RTVSPropertyOp4
 70
     1
102
RTVSPropertyOp5
 70
     1
102
RTVSPropertyOp6
 70
     1
102
RTVSPropertyOp7
 70
     1
102
RTVSPropertyOp8
 70
     1
102
RTVSPropertyOp9
 70
     1
102
RTVSPropertyOp10
 70
     1
102
RTVSPropertyOp11
 70
     1
102
RTVSPropertyOp12
 70
     1
102
RTVSPropertyOp13
 70
     1
102
RTVSPropertyOp14
 70
     1
102
RTVSPropertyOp15
 70
     1
102
RTVSPropertyOp16
 70
     1
102
RTVSPropertyOp17
 70
     1
102
RTVSPropertyOp18
 70
     1
102
RTVSPropertyOp19
 70
     1
102
RTVSPropertyOp20
 70
     1
102
RTVSPropertyOp21
 70
     1
102
RTVSPropertyOp22
 70
     1
102
RTVSPropertyOp23
 70
     1
102
RTVSPropertyOp24
 70
     1
102
RTVSPropertyOp25
 70
     1
102
RTVSPropertyOp26
 70
     1
102
RTVSPropertyOp27
 70
     1
102
RTVSPropertyOp28
 70
     1
102
RTVSPropertyOp29
 70
     1
102
RTVSPropertyOp30
 70
     1
102
RTVSPropertyOp31
 70
     1
102
RTVSPropertyOp32
 70
     1
102
RTVSPropertyOp33
 70
     1
102
RTVSPropertyOp34
 70
     1
102
RTVSPropertyOp35
 70
     1
102
RTVSPropertyOp36
 70
     1
102
RTVSPropertyOp37
 70
     1
102
RTVSPropertyOp38
 70
     1
102
RTVSPropertyOp39
 70
     1
102
RTVSPropertyOp40
 70
     1
102
RTVSPropertyOp41
 70
     1
102
RTVSPropertyOp42
 70
     1
102
RTVSPropertyOp43
 70
     1
102
RTVSPropertyOp44
 70
     1
102
RTVSPropertyOp45
 70
     1
102
RTVSPropertyOp46
 70
     1
102
RTVSPropertyOp47
 70
     1
102
RTVSPropertyOp48
 70
     1
102
RTVSPropertyOp49
 70
     1
102
RTVSPropertyOp50
 70
     1
102
RTVSPropertyOp51
 70
     0
102
RTVSPropertyOp52
 70
     0
102
RTVSPropertyOp53
 70
     1
102
RTVSPropertyOp54
 70
     1
102
RTVSPropertyOp55
 70
     1
102
RTVSPropertyOp56
 70
     1
102
RTVSPropertyOp57
 70
     1
102
RTVSPost2010Prop28
280
     1
102
RTVSPost2010PropOp28
 70
     1
102
RTVSPost2010Prop29
280
     1
102
RTVSPost2010PropOp29
 70
     1
102
RTVSPost2010Prop30
280
     0
102
RTVSPost2010PropOp30
 70
     1
102
RTVSPost2010Prop31
280
     0
102
RTVSPost2010PropOp31
 70
     1
102
RTVSPost2010Prop32
280
     0
102
RTVSPost2010PropOp32
 70
     1
102
RTVSPost2010Prop33
280
     0
102
RTVSPost2010PropOp33
 70
     1
102
RTVSPost2010Prop34
280
     0
102
RTVSPost2010PropOp34
 70
     1
102
RTVSPost2010Prop35
280
     0
102
RTVSPost2010PropOp35
 70
     1
102
RTVSPost2010Prop36
280
     0
102
RTVSPost2010PropOp36
 70
     1
102
RTVSPost2010Prop37
 90
       50
102
RTVSPost2010PropOp37
 70
     1
102
RTVSPost2010Prop38
140
0.0
102
RTVSPost2010PropOp38
 70
     1
102
RTVSPost2010Prop39
140
1.0
102
RTVSPost2010PropOp39
 70
     1
102
RTVSPost2010Prop40
 90
        0
102
RTVSPost2010PropOp40
 70
     1
102
RTVSPost2010Prop41ColorIndex
 90
       18
102
RTVSPost2010Prop41ColorRGB
 90
        0
102
RTVSPost2010PropOp41
 70
     1
102
RTVSPost2010Prop42
 90
       50
102
RTVSPost2010PropOp42
 70
     1
102
RTVSPost2010Prop43
 90
        3
102
RTVSPost2010PropOp43
 70
     1
102
RTVSPost2010Prop44ColorIndex
 90
        5
102
RTVSPost2010Prop44ColorRGB
 90
      255
102
RTVSPost2010PropOp44
 70
     1
102
RTVSPost2010Prop45
280
     0
102
RTVSPost2010PropOp45
 70
     1
102
RTVSPost2010Prop46
 90
       50
102
RTVSPost2010PropOp46
 70
     1
102
RTVSPost2010Prop47
 90
       50
102
RTVSPost2010PropOp47
 70
     1
102
RTVSPost2010Prop48
 90
       50
102
RTVSPost2010PropOp48
 70
     1
102
RTVSPost2010Prop49
280
     0
102
RTVSPost2010PropOp49
 70
     1
102
RTVSPost2010Prop50
 90
       50
102
RTVSPost2010PropOp50
 70
     1
102
RTVSPost2010Prop51ColorIndex
 90
      256
102
RTVSPost2010Prop51ColorRGB
 90
-16777216
102
RTVSPost2010PropOp51
 70
     0
102
RTVSPost2010Prop52
140
1.0
102
RTVSPost2010PropOp52
 70
     0
102
RTVSPost2010Prop53
 90
        2
102
RTVSPost2010PropOp53
 70
     1
102
RTVSPost2010Prop54
  1
strokes_ogs.tif
102
RTVSPost2010PropOp54
 70
     1
102
RTVSPost2010Prop55
280
     0
102
RTVSPost2010PropOp55
 70
     1
102
RTVSPost2010Prop56
140
1.0
102
RTVSPost2010PropOp56
 70
     1
102
RTVSPost2010Prop57
140
1.0
102
RTVSPost2010PropOp57
 70
     1
  0
XRECORD
  5
393
102
{ACAD_REACTORS
330
392
102
}
330
392
100
AcDbXrecord
280
     1
102
RTVSPropertyOp0
 70
     1
102
RTVSPropertyOp1
 70
     1
102
RTVSPropertyOp2
 70
     1
102
RTVSPropertyOp3
 70
     1
102
RTVSPropertyOp4
 70
     1
102
RTVSPropertyOp5
 70
     1
102
RTVSPropertyOp6
 70
     1
102
RTVSPropertyOp7
 70
     1
102
RTVSPropertyOp8
 70
     1
102
RTVSPropertyOp9
 70
     1
102
RTVSPropertyOp10
 70
     1
102
RTVSPropertyOp11
 70
     1
102
RTVSPropertyOp12
 70
     1
102
RTVSPropertyOp13
 70
     1
102
RTVSPropertyOp14
 70
     1
102
RTVSPropertyOp15
 70
     1
102
RTVSPropertyOp16
 70
     1
102
RTVSPropertyOp17
 70
     1
102
RTVSPropertyOp18
 70
     1
102
RTVSPropertyOp19
 70
     1
102
RTVSPropertyOp20
 70
     1
102
RTVSPropertyOp21
 70
     1
102
RTVSPropertyOp22
 70
     1
102
RTVSPropertyOp23
 70
     1
102
RTVSPropertyOp24
 70
     1
102
RTVSPropertyOp25
 70
     1
102
RTVSPropertyOp26
 70
     1
102
RTVSPropertyOp27
 70
     1
102
RTVSPropertyOp28
 70
     1
102
RTVSPropertyOp29
 70
     1
102
RTVSPropertyOp30
 70
     1
102
RTVSPropertyOp31
 70
     1
102
RTVSPropertyOp32
 70
     1
102
RTVSPropertyOp33
 70
     1
102
RTVSPropertyOp34
 70
     1
102
RTVSPropertyOp35
 70
     1
102
RTVSPropertyOp36
 70
     1
102
RTVSPropertyOp37
 70
     1
102
RTVSPropertyOp38
 70
     1
102
RTVSPropertyOp39
 70
     1
102
RTVSPropertyOp40
 70
     1
102
RTVSPropertyOp41
 70
     1
102
RTVSPropertyOp42
 70
     1
102
RTVSPropertyOp43
 70
     1
102
RTVSPropertyOp44
 70
     1
102
RTVSPropertyOp45
 70
     1
102
RTVSPropertyOp46
 70
     1
102
RTVSPropertyOp47
 70
     1
102
RTVSPropertyOp48
 70
     1
102
RTVSPropertyOp49
 70
     1
102
RTVSPropertyOp50
 70
     1
102
RTVSPropertyOp51
 70
     0
102
RTVSPropertyOp52
 70
     0
102
RTVSPropertyOp53
 70
     1
102
RTVSPropertyOp54
 70
     1
102
RTVSPropertyOp55
 70
     1
102
RTVSPropertyOp56
 70
     1
102
RTVSPropertyOp57
 70
     1
102
RTVSPost2010Prop28
280
     0
102
RTVSPost2010PropOp28
 70
     1
102
RTVSPost2010Prop29
280
     1
102
RTVSPost2010PropOp29
 70
     1
102
RTVSPost2010Prop30
280
     1
102
RTVSPost2010PropOp30
 70
     1
102
RTVSPost2010Prop31
280
     0
102
RTVSPost2010PropOp31
 70
     1
102
RTVSPost2010Prop32
280
     0
102
RTVSPost2010PropOp32
 70
     1
102
RTVSPost2010Prop33
280
     0
102
RTVSPost2010PropOp33
 70
     1
102
RTVSPost2010Prop34
280
     0
102
RTVSPost2010PropOp34
 70
     1
102
RTVSPost2010Prop35
280
     0
102
RTVSPost2010PropOp35
 70
     1
102
RTVSPost2010Prop36
280
     0
102
RTVSPost2010PropOp36
 70
     1
102
RTVSPost2010Prop37
 90
       50
102
RTVSPost2010PropOp37
 70
     1
102
RTVSPost2010Prop38
140
0.0
102
RTVSPost2010PropOp38
 70
     1
102
RTVSPost2010Prop39
140
1.0
102
RTVSPost2010PropOp39
 70
     1
102
RTVSPost2010Prop40
 90
        0
102
RTVSPost2010PropOp40
 70
     1
102
RTVSPost2010Prop41ColorIndex
 90
       18
102
RTVSPost2010Prop41ColorRGB
 90
        0
102
RTVSPost2010PropOp41
 70
     1
102
RTVSPost2010Prop42
 90
       50
102
RTVSPost2010PropOp42
 70
     1
102
RTVSPost2010Prop43
 90
        3
102
RTVSPost2010PropOp43
 70
     1
102
RTVSPost2010Prop44ColorIndex
 90
        5
102
RTVSPost2010Prop44ColorRGB
 90
      255
102
RTVSPost2010PropOp44
 70
     1
102
RTVSPost2010Prop45
280
     0
102
RTVSPost2010PropOp45
 70
     1
102
RTVSPost2010Prop46
 90
       50
102
RTVSPost2010PropOp46
 70
     1
102
RTVSPost2010Prop47
 90
       50
102
RTVSPost2010PropOp47
 70
     1
102
RTVSPost2010Prop48
 90
       50
102
RTVSPost2010PropOp48
 70
     1
102
RTVSPost2010Prop49
280
     0
102
RTVSPost2010PropOp49
 70
     1
102
RTVSPost2010Prop50
 90
       50
102
RTVSPost2010PropOp50
 70
     1
102
RTVSPost2010Prop51ColorIndex
 90
      256
102
RTVSPost2010Prop51ColorRGB
 90
-16777216
102
RTVSPost2010PropOp51
 70
     0
102
RTVSPost2010Prop52
140
1.0
102
RTVSPost2010PropOp52
 70
     0
102
RTVSPost2010Prop53
 90
        2
102
RTVSPost2010PropOp53
 70
     1
102
RTVSPost2010Prop54
  1
strokes_ogs.tif
102
RTVSPost2010PropOp54
 70
     1
102
RTVSPost2010Prop55
280
     0
102
RTVSPost2010PropOp55
 70
     1
102
RTVSPost2010Prop56
140
1.0
102
RTVSPost2010PropOp56
 70
     1
102
RTVSPost2010Prop57
140
1.0
102
RTVSPost2010PropOp57
 70
     1
  0
XRECORD
  5
39B
102
{ACAD_REACTORS
330
39A
102
}
330
39A
100
AcDbXrecord
280
     1
102
RTVSPropertyOp0
 70
     1
102
RTVSPropertyOp1
 70
     1
102
RTVSPropertyOp2
 70
     1
102
RTVSPropertyOp3
 70
     1
102
RTVSPropertyOp4
 70
     1
102
RTVSPropertyOp5
 70
     1
102
RTVSPropertyOp6
 70
     1
102
RTVSPropertyOp7
 70
     1
102
RTVSPropertyOp8
 70
     1
102
RTVSPropertyOp9
 70
     1
102
RTVSPropertyOp10
 70
     1
102
RTVSPropertyOp11
 70
     1
102
RTVSPropertyOp12
 70
     1
102
RTVSPropertyOp13
 70
     1
102
RTVSPropertyOp14
 70
     1
102
RTVSPropertyOp15
 70
     1
102
RTVSPropertyOp16
 70
     1
102
RTVSPropertyOp17
 70
     1
102
RTVSPropertyOp18
 70
     1
102
RTVSPropertyOp19
 70
     1
102
RTVSPropertyOp20
 70
     1
102
RTVSPropertyOp21
 70
     1
102
RTVSPropertyOp22
 70
     1
102
RTVSPropertyOp23
 70
     1
102
RTVSPropertyOp24
 70
     1
102
RTVSPropertyOp25
 70
     1
102
RTVSPropertyOp26
 70
     1
102
RTVSPropertyOp27
 70
     1
102
RTVSPropertyOp28
 70
     1
102
RTVSPropertyOp29
 70
     1
102
RTVSPropertyOp30
 70
     1
102
RTVSPropertyOp31
 70
     1
102
RTVSPropertyOp32
 70
     1
102
RTVSPropertyOp33
 70
     1
102
RTVSPropertyOp34
 70
     1
102
RTVSPropertyOp35
 70
     1
102
RTVSPropertyOp36
 70
     1
102
RTVSPropertyOp37
 70
     1
102
RTVSPropertyOp38
 70
     1
102
RTVSPropertyOp39
 70
     1
102
RTVSPropertyOp40
 70
     1
102
RTVSPropertyOp41
 70
     1
102
RTVSPropertyOp42
 70
     1
102
RTVSPropertyOp43
 70
     1
102
RTVSPropertyOp44
 70
     1
102
RTVSPropertyOp45
 70
     1
102
RTVSPropertyOp46
 70
     1
102
RTVSPropertyOp47
 70
     1
102
RTVSPropertyOp48
 70
     1
102
RTVSPropertyOp49
 70
     1
102
RTVSPropertyOp50
 70
     1
102
RTVSPropertyOp51
 70
     0
102
RTVSPropertyOp52
 70
     0
102
RTVSPropertyOp53
 70
     1
102
RTVSPropertyOp54
 70
     1
102
RTVSPropertyOp55
 70
     1
102
RTVSPropertyOp56
 70
     1
102
RTVSPropertyOp57
 70
     1
102
RTVSPost2010Prop28
280
     0
102
RTVSPost2010PropOp28
 70
     1
102
RTVSPost2010Prop29
280
     1
102
RTVSPost2010PropOp29
 70
     1
102
RTVSPost2010Prop30
280
     1
102
RTVSPost2010PropOp30
 70
     1
102
RTVSPost2010Prop31
280
     0
102
RTVSPost2010PropOp31
 70
     1
102
RTVSPost2010Prop32
280
     0
102
RTVSPost2010PropOp32
 70
     1
102
RTVSPost2010Prop33
280
     0
102
RTVSPost2010PropOp33
 70
     1
102
RTVSPost2010Prop34
280
     0
102
RTVSPost2010PropOp34
 70
     1
102
RTVSPost2010Prop35
280
     0
102
RTVSPost2010PropOp35
 70
     1
102
RTVSPost2010Prop36
280
     0
102
RTVSPost2010PropOp36
 70
     1
102
RTVSPost2010Prop37
 90
       50
102
RTVSPost2010PropOp37
 70
     1
102
RTVSPost2010Prop38
140
0.0
102
RTVSPost2010PropOp38
 70
     1
102
RTVSPost2010Prop39
140
1.0
102
RTVSPost2010PropOp39
 70
     1
102
RTVSPost2010Prop40
 90
        0
102
RTVSPost2010PropOp40
 70
     1
102
RTVSPost2010Prop41ColorIndex
 90
       18
102
RTVSPost2010Prop41ColorRGB
 90
        0
102
RTVSPost2010PropOp41
 70
     1
102
RTVSPost2010Prop42
 90
       50
102
RTVSPost2010PropOp42
 70
     1
102
RTVSPost2010Prop43
 90
        3
102
RTVSPost2010PropOp43
 70
     1
102
RTVSPost2010Prop44ColorIndex
 90
        5
102
RTVSPost2010Prop44ColorRGB
 90
      255
102
RTVSPost2010PropOp44
 70
     1
102
RTVSPost2010Prop45
280
     0
102
RTVSPost2010PropOp45
 70
     1
102
RTVSPost2010Prop46
 90
       50
102
RTVSPost2010PropOp46
 70
     1
102
RTVSPost2010Prop47
 90
       50
102
RTVSPost2010PropOp47
 70
     1
102
RTVSPost2010Prop48
 90
       50
102
RTVSPost2010PropOp48
 70
     1
102
RTVSPost2010Prop49
280
     0
102
RTVSPost2010PropOp49
 70
     1
102
RTVSPost2010Prop50
 90
       50
102
RTVSPost2010PropOp50
 70
     1
102
RTVSPost2010Prop51ColorIndex
 90
      256
102
RTVSPost2010Prop51ColorRGB
 90
-16777216
102
RTVSPost2010PropOp51
 70
     0
102
RTVSPost2010Prop52
140
1.0
102
RTVSPost2010PropOp52
 70
     0
102
RTVSPost2010Prop53
 90
        2
102
RTVSPost2010PropOp53
 70
     1
102
RTVSPost2010Prop54
  1
strokes_ogs.tif
102
RTVSPost2010PropOp54
 70
     1
102
RTVSPost2010Prop55
280
     0
102
RTVSPost2010PropOp55
 70
     1
102
RTVSPost2010Prop56
140
1.0
102
RTVSPost2010PropOp56
 70
     1
102
RTVSPost2010Prop57
140
1.0
102
RTVSPost2010PropOp57
 70
     1
  0
XRECORD
  5
3A3
102
{ACAD_REACTORS
330
3A2
102
}
330
3A2
100
AcDbXrecord
280
     1
102
RTVSPropertyOp0
 70
     1
102
RTVSPropertyOp1
 70
     1
102
RTVSPropertyOp2
 70
     1
102
RTVSPropertyOp3
 70
     1
102
RTVSPropertyOp4
 70
     1
102
RTVSPropertyOp5
 70
     1
102
RTVSPropertyOp6
 70
     1
102
RTVSPropertyOp7
 70
     1
102
RTVSPropertyOp8
 70
     1
102
RTVSPropertyOp9
 70
     1
102
RTVSPropertyOp10
 70
     1
102
RTVSPropertyOp11
 70
     1
102
RTVSPropertyOp12
 70
     1
102
RTVSPropertyOp13
 70
     1
102
RTVSPropertyOp14
 70
     1
102
RTVSPropertyOp15
 70
     1
102
RTVSPropertyOp16
 70
     1
102
RTVSPropertyOp17
 70
     1
102
RTVSPropertyOp18
 70
     1
102
RTVSPropertyOp19
 70
     1
102
RTVSPropertyOp20
 70
     1
102
RTVSPropertyOp21
 70
     1
102
RTVSPropertyOp22
 70
     1
102
RTVSPropertyOp23
 70
     1
102
RTVSPropertyOp24
 70
     1
102
RTVSPropertyOp25
 70
     1
102
RTVSPropertyOp26
 70
     1
102
RTVSPropertyOp27
 70
     1
102
RTVSPropertyOp28
 70
     1
102
RTVSPropertyOp29
 70
     1
102
RTVSPropertyOp30
 70
     1
102
RTVSPropertyOp31
 70
     1
102
RTVSPropertyOp32
 70
     1
102
RTVSPropertyOp33
 70
     1
102
RTVSPropertyOp34
 70
     1
102
RTVSPropertyOp35
 70
     1
102
RTVSPropertyOp36
 70
     1
102
RTVSPropertyOp37
 70
     1
102
RTVSPropertyOp38
 70
     1
102
RTVSPropertyOp39
 70
     1
102
RTVSPropertyOp40
 70
     1
102
RTVSPropertyOp41
 70
     1
102
RTVSPropertyOp42
 70
     1
102
RTVSPropertyOp43
 70
     1
102
RTVSPropertyOp44
 70
     1
102
RTVSPropertyOp45
 70
     1
102
RTVSPropertyOp46
 70
     1
102
RTVSPropertyOp47
 70
     1
102
RTVSPropertyOp48
 70
     1
102
RTVSPropertyOp49
 70
     1
102
RTVSPropertyOp50
 70
     1
102
RTVSPropertyOp51
 70
     0
102
RTVSPropertyOp52
 70
     0
102
RTVSPropertyOp53
 70
     1
102
RTVSPropertyOp54
 70
     1
102
RTVSPropertyOp55
 70
     1
102
RTVSPropertyOp56
 70
     1
102
RTVSPropertyOp57
 70
     1
102
RTVSPost2010Prop28
280
     0
102
RTVSPost2010PropOp28
 70
     1
102
RTVSPost2010Prop29
280
     1
102
RTVSPost2010PropOp29
 70
     1
102
RTVSPost2010Prop30
280
     1
102
RTVSPost2010PropOp30
 70
     1
102
RTVSPost2010Prop31
280
     0
102
RTVSPost2010PropOp31
 70
     1
102
RTVSPost2010Prop32
280
     0
102
RTVSPost2010PropOp32
 70
     1
102
RTVSPost2010Prop33
280
     0
102
RTVSPost2010PropOp33
 70
     1
102
RTVSPost2010Prop34
280
     0
102
RTVSPost2010PropOp34
 70
     1
102
RTVSPost2010Prop35
280
     0
102
RTVSPost2010PropOp35
 70
     1
102
RTVSPost2010Prop36
280
     0
102
RTVSPost2010PropOp36
 70
     1
102
RTVSPost2010Prop37
 90
       50
102
RTVSPost2010PropOp37
 70
     1
102
RTVSPost2010Prop38
140
0.0
102
RTVSPost2010PropOp38
 70
     1
102
RTVSPost2010Prop39
140
1.0
102
RTVSPost2010PropOp39
 70
     1
102
RTVSPost2010Prop40
 90
        0
102
RTVSPost2010PropOp40
 70
     1
102
RTVSPost2010Prop41ColorIndex
 90
       18
102
RTVSPost2010Prop41ColorRGB
 90
        0
102
RTVSPost2010PropOp41
 70
     1
102
RTVSPost2010Prop42
 90
       50
102
RTVSPost2010PropOp42
 70
     1
102
RTVSPost2010Prop43
 90
        3
102
RTVSPost2010PropOp43
 70
     1
102
RTVSPost2010Prop44ColorIndex
 90
        5
102
RTVSPost2010Prop44ColorRGB
 90
      255
102
RTVSPost2010PropOp44
 70
     1
102
RTVSPost2010Prop45
280
     0
102
RTVSPost2010PropOp45
 70
     1
102
RTVSPost2010Prop46
 90
       50
102
RTVSPost2010PropOp46
 70
     1
102
RTVSPost2010Prop47
 90
       50
102
RTVSPost2010PropOp47
 70
     1
102
RTVSPost2010Prop48
 90
       50
102
RTVSPost2010PropOp48
 70
     1
102
RTVSPost2010Prop49
280
     0
102
RTVSPost2010PropOp49
 70
     1
102
RTVSPost2010Prop50
 90
       50
102
RTVSPost2010PropOp50
 70
     1
102
RTVSPost2010Prop51ColorIndex
 90
      256
102
RTVSPost2010Prop51ColorRGB
 90
-16777216
102
RTVSPost2010PropOp51
 70
     0
102
RTVSPost2010Prop52
140
1.0
102
RTVSPost2010PropOp52
 70
     0
102
RTVSPost2010Prop53
 90
        2
102
RTVSPost2010PropOp53
 70
     1
102
RTVSPost2010Prop54
  1
strokes_ogs.tif
102
RTVSPost2010PropOp54
 70
     1
102
RTVSPost2010Prop55
280
     0
102
RTVSPost2010PropOp55
 70
     1
102
RTVSPost2010Prop56
140
1.0
102
RTVSPost2010PropOp56
 70
     1
102
RTVSPost2010Prop57
140
1.0
102
RTVSPost2010PropOp57
 70
     1
  0
XRECORD
  5
397
102
{ACAD_REACTORS
330
396
102
}
330
396
100
AcDbXrecord
280
     1
102
RTVSPropertyOp0
 70
     1
102
RTVSPropertyOp1
 70
     1
102
RTVSPropertyOp2
 70
     1
102
RTVSPropertyOp3
 70
     1
102
RTVSPropertyOp4
 70
     1
102
RTVSPropertyOp5
 70
     1
102
RTVSPropertyOp6
 70
     1
102
RTVSPropertyOp7
 70
     1
102
RTVSPropertyOp8
 70
     1
102
RTVSPropertyOp9
 70
     1
102
RTVSPropertyOp10
 70
     1
102
RTVSPropertyOp11
 70
     1
102
RTVSPropertyOp12
 70
     1
102
RTVSPropertyOp13
 70
     1
102
RTVSPropertyOp14
 70
     1
102
RTVSPropertyOp15
 70
     1
102
RTVSPropertyOp16
 70
     1
102
RTVSPropertyOp17
 70
     1
102
RTVSPropertyOp18
 70
     1
102
RTVSPropertyOp19
 70
     1
102
RTVSPropertyOp20
 70
     1
102
RTVSPropertyOp21
 70
     1
102
RTVSPropertyOp22
 70
     1
102
RTVSPropertyOp23
 70
     1
102
RTVSPropertyOp24
 70
     1
102
RTVSPropertyOp25
 70
     1
102
RTVSPropertyOp26
 70
     1
102
RTVSPropertyOp27
 70
     1
102
RTVSPropertyOp28
 70
     1
102
RTVSPropertyOp29
 70
     1
102
RTVSPropertyOp30
 70
     1
102
RTVSPropertyOp31
 70
     1
102
RTVSPropertyOp32
 70
     1
102
RTVSPropertyOp33
 70
     1
102
RTVSPropertyOp34
 70
     1
102
RTVSPropertyOp35
 70
     1
102
RTVSPropertyOp36
 70
     1
102
RTVSPropertyOp37
 70
     1
102
RTVSPropertyOp38
 70
     1
102
RTVSPropertyOp39
 70
     1
102
RTVSPropertyOp40
 70
     1
102
RTVSPropertyOp41
 70
     1
102
RTVSPropertyOp42
 70
     1
102
RTVSPropertyOp43
 70
     1
102
RTVSPropertyOp44
 70
     1
102
RTVSPropertyOp45
 70
     1
102
RTVSPropertyOp46
 70
     1
102
RTVSPropertyOp47
 70
     1
102
RTVSPropertyOp48
 70
     1
102
RTVSPropertyOp49
 70
     1
102
RTVSPropertyOp50
 70
     1
102
RTVSPropertyOp51
 70
     0
102
RTVSPropertyOp52
 70
     0
102
RTVSPropertyOp53
 70
     1
102
RTVSPropertyOp54
 70
     1
102
RTVSPropertyOp55
 70
     1
102
RTVSPropertyOp56
 70
     1
102
RTVSPropertyOp57
 70
     1
102
RTVSPost2010Prop28
280
     0
102
RTVSPost2010PropOp28
 70
     1
102
RTVSPost2010Prop29
280
     1
102
RTVSPost2010PropOp29
 70
     1
102
RTVSPost2010Prop30
280
     1
102
RTVSPost2010PropOp30
 70
     1
102
RTVSPost2010Prop31
280
     0
102
RTVSPost2010PropOp31
 70
     1
102
RTVSPost2010Prop32
280
     0
102
RTVSPost2010PropOp32
 70
     1
102
RTVSPost2010Prop33
280
     0
102
RTVSPost2010PropOp33
 70
     1
102
RTVSPost2010Prop34
280
     0
102
RTVSPost2010PropOp34
 70
     1
102
RTVSPost2010Prop35
280
     0
102
RTVSPost2010PropOp35
 70
     1
102
RTVSPost2010Prop36
280
     0
102
RTVSPost2010PropOp36
 70
     1
102
RTVSPost2010Prop37
 90
       50
102
RTVSPost2010PropOp37
 70
     1
102
RTVSPost2010Prop38
140
0.0
102
RTVSPost2010PropOp38
 70
     1
102
RTVSPost2010Prop39
140
1.0
102
RTVSPost2010PropOp39
 70
     1
102
RTVSPost2010Prop40
 90
        0
102
RTVSPost2010PropOp40
 70
     1
102
RTVSPost2010Prop41ColorIndex
 90
       18
102
RTVSPost2010Prop41ColorRGB
 90
        0
102
RTVSPost2010PropOp41
 70
     1
102
RTVSPost2010Prop42
 90
       50
102
RTVSPost2010PropOp42
 70
     1
102
RTVSPost2010Prop43
 90
        3
102
RTVSPost2010PropOp43
 70
     1
102
RTVSPost2010Prop44ColorIndex
 90
        5
102
RTVSPost2010Prop44ColorRGB
 90
      255
102
RTVSPost2010PropOp44
 70
     1
102
RTVSPost2010Prop45
280
     0
102
RTVSPost2010PropOp45
 70
     1
102
RTVSPost2010Prop46
 90
       50
102
RTVSPost2010PropOp46
 70
     1
102
RTVSPost2010Prop47
 90
       50
102
RTVSPost2010PropOp47
 70
     1
102
RTVSPost2010Prop48
 90
       50
102
RTVSPost2010PropOp48
 70
     1
102
RTVSPost2010Prop49
280
     0
102
RTVSPost2010PropOp49
 70
     1
102
RTVSPost2010Prop50
 90
       50
102
RTVSPost2010PropOp50
 70
     1
102
RTVSPost2010Prop51ColorIndex
 90
      256
102
RTVSPost2010Prop51ColorRGB
 90
-16777216
102
RTVSPost2010PropOp51
 70
     0
102
RTVSPost2010Prop52
140
1.0
102
RTVSPost2010PropOp52
 70
     0
102
RTVSPost2010Prop53
 90
        2
102
RTVSPost2010PropOp53
 70
     1
102
RTVSPost2010Prop54
  1
strokes_ogs.tif
102
RTVSPost2010PropOp54
 70
     1
102
RTVSPost2010Prop55
280
     0
102
RTVSPost2010PropOp55
 70
     1
102
RTVSPost2010Prop56
140
1.0
102
RTVSPost2010PropOp56
 70
     1
102
RTVSPost2010Prop57
140
1.0
102
RTVSPost2010PropOp57
 70
     1
  0
XRECORD
  5
399
102
{ACAD_REACTORS
330
398
102
}
330
398
100
AcDbXrecord
280
     1
102
RTVSPropertyOp0
 70
     1
102
RTVSPropertyOp1
 70
     1
102
RTVSPropertyOp2
 70
     1
102
RTVSPropertyOp3
 70
     1
102
RTVSPropertyOp4
 70
     1
102
RTVSPropertyOp5
 70
     1
102
RTVSPropertyOp6
 70
     1
102
RTVSPropertyOp7
 70
     1
102
RTVSPropertyOp8
 70
     1
102
RTVSPropertyOp9
 70
     1
102
RTVSPropertyOp10
 70
     1
102
RTVSPropertyOp11
 70
     1
102
RTVSPropertyOp12
 70
     1
102
RTVSPropertyOp13
 70
     1
102
RTVSPropertyOp14
 70
     1
102
RTVSPropertyOp15
 70
     1
102
RTVSPropertyOp16
 70
     1
102
RTVSPropertyOp17
 70
     1
102
RTVSPropertyOp18
 70
     1
102
RTVSPropertyOp19
 70
     1
102
RTVSPropertyOp20
 70
     1
102
RTVSPropertyOp21
 70
     1
102
RTVSPropertyOp22
 70
     1
102
RTVSPropertyOp23
 70
     1
102
RTVSPropertyOp24
 70
     1
102
RTVSPropertyOp25
 70
     1
102
RTVSPropertyOp26
 70
     1
102
RTVSPropertyOp27
 70
     1
102
RTVSPropertyOp28
 70
     1
102
RTVSPropertyOp29
 70
     1
102
RTVSPropertyOp30
 70
     1
102
RTVSPropertyOp31
 70
     1
102
RTVSPropertyOp32
 70
     1
102
RTVSPropertyOp33
 70
     1
102
RTVSPropertyOp34
 70
     1
102
RTVSPropertyOp35
 70
     1
102
RTVSPropertyOp36
 70
     1
102
RTVSPropertyOp37
 70
     1
102
RTVSPropertyOp38
 70
     1
102
RTVSPropertyOp39
 70
     1
102
RTVSPropertyOp40
 70
     1
102
RTVSPropertyOp41
 70
     1
102
RTVSPropertyOp42
 70
     1
102
RTVSPropertyOp43
 70
     1
102
RTVSPropertyOp44
 70
     1
102
RTVSPropertyOp45
 70
     1
102
RTVSPropertyOp46
 70
     1
102
RTVSPropertyOp47
 70
     1
102
RTVSPropertyOp48
 70
     1
102
RTVSPropertyOp49
 70
     1
102
RTVSPropertyOp50
 70
     1
102
RTVSPropertyOp51
 70
     0
102
RTVSPropertyOp52
 70
     0
102
RTVSPropertyOp53
 70
     1
102
RTVSPropertyOp54
 70
     1
102
RTVSPropertyOp55
 70
     1
102
RTVSPropertyOp56
 70
     1
102
RTVSPropertyOp57
 70
     1
102
RTVSPost2010Prop28
280
     0
102
RTVSPost2010PropOp28
 70
     1
102
RTVSPost2010Prop29
280
     1
102
RTVSPost2010PropOp29
 70
     1
102
RTVSPost2010Prop30
280
     1
102
RTVSPost2010PropOp30
 70
     1
102
RTVSPost2010Prop31
280
     0
102
RTVSPost2010PropOp31
 70
     1
102
RTVSPost2010Prop32
280
     0
102
RTVSPost2010PropOp32
 70
     1
102
RTVSPost2010Prop33
280
     0
102
RTVSPost2010PropOp33
 70
     1
102
RTVSPost2010Prop34
280
     0
102
RTVSPost2010PropOp34
 70
     1
102
RTVSPost2010Prop35
280
     0
102
RTVSPost2010PropOp35
 70
     1
102
RTVSPost2010Prop36
280
     0
102
RTVSPost2010PropOp36
 70
     1
102
RTVSPost2010Prop37
 90
       50
102
RTVSPost2010PropOp37
 70
     1
102
RTVSPost2010Prop38
140
0.0
102
RTVSPost2010PropOp38
 70
     1
102
RTVSPost2010Prop39
140
1.0
102
RTVSPost2010PropOp39
 70
     1
102
RTVSPost2010Prop40
 90
        0
102
RTVSPost2010PropOp40
 70
     1
102
RTVSPost2010Prop41ColorIndex
 90
       18
102
RTVSPost2010Prop41ColorRGB
 90
        0
102
RTVSPost2010PropOp41
 70
     1
102
RTVSPost2010Prop42
 90
       50
102
RTVSPost2010PropOp42
 70
     1
102
RTVSPost2010Prop43
 90
        3
102
RTVSPost2010PropOp43
 70
     1
102
RTVSPost2010Prop44ColorIndex
 90
        5
102
RTVSPost2010Prop44ColorRGB
 90
      255
102
RTVSPost2010PropOp44
 70
     1
102
RTVSPost2010Prop45
280
     0
102
RTVSPost2010PropOp45
 70
     1
102
RTVSPost2010Prop46
 90
       50
102
RTVSPost2010PropOp46
 70
     1
102
RTVSPost2010Prop47
 90
       50
102
RTVSPost2010PropOp47
 70
     1
102
RTVSPost2010Prop48
 90
       50
102
RTVSPost2010PropOp48
 70
     1
102
RTVSPost2010Prop49
280
     0
102
RTVSPost2010PropOp49
 70
     1
102
RTVSPost2010Prop50
 90
       50
102
RTVSPost2010PropOp50
 70
     1
102
RTVSPost2010Prop51ColorIndex
 90
      256
102
RTVSPost2010Prop51ColorRGB
 90
-16777216
102
RTVSPost2010PropOp51
 70
     0
102
RTVSPost2010Prop52
140
1.0
102
RTVSPost2010PropOp52
 70
     0
102
RTVSPost2010Prop53
 90
        2
102
RTVSPost2010PropOp53
 70
     1
102
RTVSPost2010Prop54
  1
strokes_ogs.tif
102
RTVSPost2010PropOp54
 70
     1
102
RTVSPost2010Prop55
280
     0
102
RTVSPost2010PropOp55
 70
     1
102
RTVSPost2010Prop56
140
1.0
102
RTVSPost2010PropOp56
 70
     1
102
RTVSPost2010Prop57
140
1.0
102
RTVSPost2010PropOp57
 70
     1
  0
XRECORD
  5
3A9
102
{ACAD_REACTORS
330
3A8
102
}
330
3A8
100
AcDbXrecord
280
     1
102
RTVSPropertyOp0
 70
     0
102
RTVSPropertyOp1
 70
     0
102
RTVSPropertyOp2
 70
     0
102
RTVSPropertyOp3
 70
     0
102
RTVSPropertyOp4
 70
     0
102
RTVSPropertyOp5
 70
     0
102
RTVSPropertyOp6
 70
     0
102
RTVSPropertyOp7
 70
     0
102
RTVSPropertyOp8
 70
     0
102
RTVSPropertyOp9
 70
     0
102
RTVSPropertyOp10
 70
     0
102
RTVSPropertyOp11
 70
     0
102
RTVSPropertyOp12
 70
     0
102
RTVSPropertyOp13
 70
     0
102
RTVSPropertyOp14
 70
     2
102
RTVSPropertyOp15
 70
     0
102
RTVSPropertyOp16
 70
     0
102
RTVSPropertyOp17
 70
     0
102
RTVSPropertyOp18
 70
     0
102
RTVSPropertyOp19
 70
     0
102
RTVSPropertyOp20
 70
     0
102
RTVSPropertyOp21
 70
     0
102
RTVSPropertyOp22
 70
     0
102
RTVSPropertyOp23
 70
     0
102
RTVSPropertyOp24
 70
     0
102
RTVSPropertyOp25
 70
     0
102
RTVSPropertyOp26
 70
     0
102
RTVSPropertyOp27
 70
     0
102
RTVSPropertyOp28
 70
     0
102
RTVSPropertyOp29
 70
     0
102
RTVSPropertyOp30
 70
     0
102
RTVSPropertyOp31
 70
     0
102
RTVSPropertyOp32
 70
     0
102
RTVSPropertyOp33
 70
     0
102
RTVSPropertyOp34
 70
     0
102
RTVSPropertyOp35
 70
     0
102
RTVSPropertyOp36
 70
     0
102
RTVSPropertyOp37
 70
     0
102
RTVSPropertyOp38
 70
     0
102
RTVSPropertyOp39
 70
     0
102
RTVSPropertyOp40
 70
     0
102
RTVSPropertyOp41
 70
     0
102
RTVSPropertyOp42
 70
     0
102
RTVSPropertyOp43
 70
     0
102
RTVSPropertyOp44
 70
     0
102
RTVSPropertyOp45
 70
     0
102
RTVSPropertyOp46
 70
     0
102
RTVSPropertyOp47
 70
     0
102
RTVSPropertyOp48
 70
     0
102
RTVSPropertyOp49
 70
     0
102
RTVSPropertyOp50
 70
     0
102
RTVSPropertyOp51
 70
     0
102
RTVSPropertyOp52
 70
     0
102
RTVSPropertyOp53
 70
     0
102
RTVSPropertyOp54
 70
     0
102
RTVSPropertyOp55
 70
     0
102
RTVSPropertyOp56
 70
     0
102
RTVSPropertyOp57
 70
     0
102
RTVSPost2010Prop28
280
     0
102
RTVSPost2010PropOp28
 70
     0
102
RTVSPost2010Prop29
280
     1
102
RTVSPost2010PropOp29
 70
     0
102
RTVSPost2010Prop30
280
     1
102
RTVSPost2010PropOp30
 70
     0
102
RTVSPost2010Prop31
280
     0
102
RTVSPost2010PropOp31
 70
     0
102
RTVSPost2010Prop32
280
     0
102
RTVSPost2010PropOp32
 70
     0
102
RTVSPost2010Prop33
280
     0
102
RTVSPost2010PropOp33
 70
     0
102
RTVSPost2010Prop34
280
     0
102
RTVSPost2010PropOp34
 70
     0
102
RTVSPost2010Prop35
280
     0
102
RTVSPost2010PropOp35
 70
     0
102
RTVSPost2010Prop36
280
     0
102
RTVSPost2010PropOp36
 70
     0
102
RTVSPost2010Prop37
 90
       50
102
RTVSPost2010PropOp37
 70
     0
102
RTVSPost2010Prop38
140
0.0
102
RTVSPost2010PropOp38
 70
     0
102
RTVSPost2010Prop39
140
1.0
102
RTVSPost2010PropOp39
 70
     0
102
RTVSPost2010Prop40
 90
        0
102
RTVSPost2010PropOp40
 70
     0
102
RTVSPost2010Prop41ColorIndex
 90
       18
102
RTVSPost2010Prop41ColorRGB
 90
        0
102
RTVSPost2010PropOp41
 70
     0
102
RTVSPost2010Prop42
 90
       50
102
RTVSPost2010PropOp42
 70
     0
102
RTVSPost2010Prop43
 90
        3
102
RTVSPost2010PropOp43
 70
     0
102
RTVSPost2010Prop44ColorIndex
 90
        5
102
RTVSPost2010Prop44ColorRGB
 90
      255
102
RTVSPost2010PropOp44
 70
     0
102
RTVSPost2010Prop45
280
     0
102
RTVSPost2010PropOp45
 70
     0
102
RTVSPost2010Prop46
 90
       50
102
RTVSPost2010PropOp46
 70
     0
102
RTVSPost2010Prop47
 90
       50
102
RTVSPost2010PropOp47
 70
     0
102
RTVSPost2010Prop48
 90
       50
102
RTVSPost2010PropOp48
 70
     0
102
RTVSPost2010Prop49
280
     0
102
RTVSPost2010PropOp49
 70
     0
102
RTVSPost2010Prop50
 90
       50
102
RTVSPost2010PropOp50
 70
     0
102
RTVSPost2010Prop51ColorIndex
 90
      256
102
RTVSPost2010Prop51ColorRGB
 90
-16777216
102
RTVSPost2010PropOp51
 70
     0
102
RTVSPost2010Prop52
140
1.0
102
RTVSPost2010PropOp52
 70
     0
102
RTVSPost2010Prop53
 90
        2
102
RTVSPost2010PropOp53
 70
     0
102
RTVSPost2010Prop54
  1
strokes_ogs.tif
102
RTVSPost2010PropOp54
 70
     0
102
RTVSPost2010Prop55
280
     0
102
RTVSPost2010PropOp55
 70
     0
102
RTVSPost2010Prop56
140
1.0
102
RTVSPost2010PropOp56
 70
     0
102
RTVSPost2010Prop57
140
1.0
102
RTVSPost2010PropOp57
 70
     0
  0
XRECORD
  5
3A1
102
{ACAD_REACTORS
330
3A0
102
}
330
3A0
100
AcDbXrecord
280
     1
102
RTVSPropertyOp0
 70
     1
102
RTVSPropertyOp1
 70
     1
102
RTVSPropertyOp2
 70
     1
102
RTVSPropertyOp3
 70
     1
102
RTVSPropertyOp4
 70
     1
102
RTVSPropertyOp5
 70
     1
102
RTVSPropertyOp6
 70
     1
102
RTVSPropertyOp7
 70
     1
102
RTVSPropertyOp8
 70
     1
102
RTVSPropertyOp9
 70
     1
102
RTVSPropertyOp10
 70
     1
102
RTVSPropertyOp11
 70
     1
102
RTVSPropertyOp12
 70
     1
102
RTVSPropertyOp13
 70
     1
102
RTVSPropertyOp14
 70
     1
102
RTVSPropertyOp15
 70
     1
102
RTVSPropertyOp16
 70
     1
102
RTVSPropertyOp17
 70
     1
102
RTVSPropertyOp18
 70
     1
102
RTVSPropertyOp19
 70
     1
102
RTVSPropertyOp20
 70
     1
102
RTVSPropertyOp21
 70
     1
102
RTVSPropertyOp22
 70
     1
102
RTVSPropertyOp23
 70
     1
102
RTVSPropertyOp24
 70
     1
102
RTVSPropertyOp25
 70
     1
102
RTVSPropertyOp26
 70
     1
102
RTVSPropertyOp27
 70
     1
102
RTVSPropertyOp28
 70
     1
102
RTVSPropertyOp29
 70
     1
102
RTVSPropertyOp30
 70
     1
102
RTVSPropertyOp31
 70
     1
102
RTVSPropertyOp32
 70
     1
102
RTVSPropertyOp33
 70
     1
102
RTVSPropertyOp34
 70
     1
102
RTVSPropertyOp35
 70
     1
102
RTVSPropertyOp36
 70
     1
102
RTVSPropertyOp37
 70
     1
102
RTVSPropertyOp38
 70
     1
102
RTVSPropertyOp39
 70
     1
102
RTVSPropertyOp40
 70
     1
102
RTVSPropertyOp41
 70
     1
102
RTVSPropertyOp42
 70
     1
102
RTVSPropertyOp43
 70
     1
102
RTVSPropertyOp44
 70
     1
102
RTVSPropertyOp45
 70
     1
102
RTVSPropertyOp46
 70
     1
102
RTVSPropertyOp47
 70
     1
102
RTVSPropertyOp48
 70
     1
102
RTVSPropertyOp49
 70
     1
102
RTVSPropertyOp50
 70
     1
102
RTVSPropertyOp51
 70
     0
102
RTVSPropertyOp52
 70
     0
102
RTVSPropertyOp53
 70
     1
102
RTVSPropertyOp54
 70
     1
102
RTVSPropertyOp55
 70
     1
102
RTVSPropertyOp56
 70
     1
102
RTVSPropertyOp57
 70
     1
102
RTVSPost2010Prop28
280
     0
102
RTVSPost2010PropOp28
 70
     1
102
RTVSPost2010Prop29
280
     1
102
RTVSPost2010PropOp29
 70
     1
102
RTVSPost2010Prop30
280
     1
102
RTVSPost2010PropOp30
 70
     1
102
RTVSPost2010Prop31
280
     0
102
RTVSPost2010PropOp31
 70
     1
102
RTVSPost2010Prop32
280
     0
102
RTVSPost2010PropOp32
 70
     1
102
RTVSPost2010Prop33
280
     0
102
RTVSPost2010PropOp33
 70
     1
102
RTVSPost2010Prop34
280
     0
102
RTVSPost2010PropOp34
 70
     1
102
RTVSPost2010Prop35
280
     0
102
RTVSPost2010PropOp35
 70
     1
102
RTVSPost2010Prop36
280
     0
102
RTVSPost2010PropOp36
 70
     1
102
RTVSPost2010Prop37
 90
       50
102
RTVSPost2010PropOp37
 70
     1
102
RTVSPost2010Prop38
140
0.0
102
RTVSPost2010PropOp38
 70
     1
102
RTVSPost2010Prop39
140
1.0
102
RTVSPost2010PropOp39
 70
     1
102
RTVSPost2010Prop40
 90
        0
102
RTVSPost2010PropOp40
 70
     1
102
RTVSPost2010Prop41ColorIndex
 90
       18
102
RTVSPost2010Prop41ColorRGB
 90
        0
102
RTVSPost2010PropOp41
 70
     1
102
RTVSPost2010Prop42
 90
       50
102
RTVSPost2010PropOp42
 70
     1
102
RTVSPost2010Prop43
 90
        3
102
RTVSPost2010PropOp43
 70
     1
102
RTVSPost2010Prop44ColorIndex
 90
        5
102
RTVSPost2010Prop44ColorRGB
 90
      255
102
RTVSPost2010PropOp44
 70
     1
102
RTVSPost2010Prop45
280
     0
102
RTVSPost2010PropOp45
 70
     1
102
RTVSPost2010Prop46
 90
       50
102
RTVSPost2010PropOp46
 70
     1
102
RTVSPost2010Prop47
 90
       50
102
RTVSPost2010PropOp47
 70
     1
102
RTVSPost2010Prop48
 90
       50
102
RTVSPost2010PropOp48
 70
     1
102
RTVSPost2010Prop49
280
     0
102
RTVSPost2010PropOp49
 70
     1
102
RTVSPost2010Prop50
 90
       50
102
RTVSPost2010PropOp50
 70
     1
102
RTVSPost2010Prop51ColorIndex
 90
      256
102
RTVSPost2010Prop51ColorRGB
 90
-16777216
102
RTVSPost2010PropOp51
 70
     0
102
RTVSPost2010Prop52
140
1.0
102
RTVSPost2010PropOp52
 70
     0
102
RTVSPost2010Prop53
 90
        2
102
RTVSPost2010PropOp53
 70
     1
102
RTVSPost2010Prop54
  1
strokes_ogs.tif
102
RTVSPost2010PropOp54
 70
     1
102
RTVSPost2010Prop55
280
     0
102
RTVSPost2010PropOp55
 70
     1
102
RTVSPost2010Prop56
140
1.0
102
RTVSPost2010PropOp56
 70
     1
102
RTVSPost2010Prop57
140
1.0
102
RTVSPost2010PropOp57
 70
     1
  0
XRECORD
  5
385
102
{ACAD_REACTORS
330
384
102
}
330
384
100
AcDbXrecord
280
     1
102
RTVSPropertyOp0
 70
     1
102
RTVSPropertyOp1
 70
     1
102
RTVSPropertyOp2
 70
     1
102
RTVSPropertyOp3
 70
     1
102
RTVSPropertyOp4
 70
     1
102
RTVSPropertyOp5
 70
     1
102
RTVSPropertyOp6
 70
     1
102
RTVSPropertyOp7
 70
     1
102
RTVSPropertyOp8
 70
     1
102
RTVSPropertyOp9
 70
     1
102
RTVSPropertyOp10
 70
     1
102
RTVSPropertyOp11
 70
     1
102
RTVSPropertyOp12
 70
     1
102
RTVSPropertyOp13
 70
     1
102
RTVSPropertyOp14
 70
     1
102
RTVSPropertyOp15
 70
     1
102
RTVSPropertyOp16
 70
     1
102
RTVSPropertyOp17
 70
     1
102
RTVSPropertyOp18
 70
     1
102
RTVSPropertyOp19
 70
     1
102
RTVSPropertyOp20
 70
     1
102
RTVSPropertyOp21
 70
     1
102
RTVSPropertyOp22
 70
     1
102
RTVSPropertyOp23
 70
     1
102
RTVSPropertyOp24
 70
     1
102
RTVSPropertyOp25
 70
     1
102
RTVSPropertyOp26
 70
     1
102
RTVSPropertyOp27
 70
     1
102
RTVSPropertyOp28
 70
     1
102
RTVSPropertyOp29
 70
     1
102
RTVSPropertyOp30
 70
     1
102
RTVSPropertyOp31
 70
     1
102
RTVSPropertyOp32
 70
     1
102
RTVSPropertyOp33
 70
     1
102
RTVSPropertyOp34
 70
     1
102
RTVSPropertyOp35
 70
     1
102
RTVSPropertyOp36
 70
     1
102
RTVSPropertyOp37
 70
     1
102
RTVSPropertyOp38
 70
     1
102
RTVSPropertyOp39
 70
     1
102
RTVSPropertyOp40
 70
     1
102
RTVSPropertyOp41
 70
     1
102
RTVSPropertyOp42
 70
     1
102
RTVSPropertyOp43
 70
     1
102
RTVSPropertyOp44
 70
     1
102
RTVSPropertyOp45
 70
     1
102
RTVSPropertyOp46
 70
     1
102
RTVSPropertyOp47
 70
     1
102
RTVSPropertyOp48
 70
     1
102
RTVSPropertyOp49
 70
     1
102
RTVSPropertyOp50
 70
     1
102
RTVSPropertyOp51
 70
     0
102
RTVSPropertyOp52
 70
     0
102
RTVSPropertyOp53
 70
     1
102
RTVSPropertyOp54
 70
     1
102
RTVSPropertyOp55
 70
     1
102
RTVSPropertyOp56
 70
     1
102
RTVSPropertyOp57
 70
     1
102
RTVSPost2010Prop28
280
     0
102
RTVSPost2010PropOp28
 70
     1
102
RTVSPost2010Prop29
280
     1
102
RTVSPost2010PropOp29
 70
     1
102
RTVSPost2010Prop30
280
     1
102
RTVSPost2010PropOp30
 70
     1
102
RTVSPost2010Prop31
280
     0
102
RTVSPost2010PropOp31
 70
     1
102
RTVSPost2010Prop32
280
     0
102
RTVSPost2010PropOp32
 70
     1
102
RTVSPost2010Prop33
280
     0
102
RTVSPost2010PropOp33
 70
     1
102
RTVSPost2010Prop34
280
     0
102
RTVSPost2010PropOp34
 70
     1
102
RTVSPost2010Prop35
280
     0
102
RTVSPost2010PropOp35
 70
     1
102
RTVSPost2010Prop36
280
     0
102
RTVSPost2010PropOp36
 70
     1
102
RTVSPost2010Prop37
 90
       50
102
RTVSPost2010PropOp37
 70
     1
102
RTVSPost2010Prop38
140
0.0
102
RTVSPost2010PropOp38
 70
     1
102
RTVSPost2010Prop39
140
1.0
102
RTVSPost2010PropOp39
 70
     1
102
RTVSPost2010Prop40
 90
        0
102
RTVSPost2010PropOp40
 70
     1
102
RTVSPost2010Prop41ColorIndex
 90
       18
102
RTVSPost2010Prop41ColorRGB
 90
        0
102
RTVSPost2010PropOp41
 70
     1
102
RTVSPost2010Prop42
 90
       50
102
RTVSPost2010PropOp42
 70
     1
102
RTVSPost2010Prop43
 90
        3
102
RTVSPost2010PropOp43
 70
     1
102
RTVSPost2010Prop44ColorIndex
 90
        5
102
RTVSPost2010Prop44ColorRGB
 90
      255
102
RTVSPost2010PropOp44
 70
     1
102
RTVSPost2010Prop45
280
     0
102
RTVSPost2010PropOp45
 70
     1
102
RTVSPost2010Prop46
 90
       50
102
RTVSPost2010PropOp46
 70
     1
102
RTVSPost2010Prop47
 90
       50
102
RTVSPost2010PropOp47
 70
     1
102
RTVSPost2010Prop48
 90
       50
102
RTVSPost2010PropOp48
 70
     1
102
RTVSPost2010Prop49
280
     0
102
RTVSPost2010PropOp49
 70
     1
102
RTVSPost2010Prop50
 90
       50
102
RTVSPost2010PropOp50
 70
     1
102
RTVSPost2010Prop51ColorIndex
 90
      256
102
RTVSPost2010Prop51ColorRGB
 90
-16777216
102
RTVSPost2010PropOp51
 70
     0
102
RTVSPost2010Prop52
140
1.0
102
RTVSPost2010PropOp52
 70
     0
102
RTVSPost2010Prop53
 90
        2
102
RTVSPost2010PropOp53
 70
     1
102
RTVSPost2010Prop54
  1
strokes_ogs.tif
102
RTVSPost2010PropOp54
 70
     1
102
RTVSPost2010Prop55
280
     0
102
RTVSPost2010PropOp55
 70
     1
102
RTVSPost2010Prop56
140
1.0
102
RTVSPost2010PropOp56
 70
     1
102
RTVSPost2010Prop57
140
1.0
102
RTVSPost2010PropOp57
 70
     1
  0
XRECORD
  5
387
102
{ACAD_REACTORS
330
386
102
}
330
386
100
AcDbXrecord
280
     1
102
RTVSPropertyOp0
 70
     1
102
RTVSPropertyOp1
 70
     1
102
RTVSPropertyOp2
 70
     1
102
RTVSPropertyOp3
 70
     1
102
RTVSPropertyOp4
 70
     1
102
RTVSPropertyOp5
 70
     1
102
RTVSPropertyOp6
 70
     1
102
RTVSPropertyOp7
 70
     1
102
RTVSPropertyOp8
 70
     1
102
RTVSPropertyOp9
 70
     1
102
RTVSPropertyOp10
 70
     1
102
RTVSPropertyOp11
 70
     1
102
RTVSPropertyOp12
 70
     1
102
RTVSPropertyOp13
 70
     1
102
RTVSPropertyOp14
 70
     1
102
RTVSPropertyOp15
 70
     1
102
RTVSPropertyOp16
 70
     1
102
RTVSPropertyOp17
 70
     1
102
RTVSPropertyOp18
 70
     1
102
RTVSPropertyOp19
 70
     1
102
RTVSPropertyOp20
 70
     1
102
RTVSPropertyOp21
 70
     1
102
RTVSPropertyOp22
 70
     1
102
RTVSPropertyOp23
 70
     1
102
RTVSPropertyOp24
 70
     1
102
RTVSPropertyOp25
 70
     1
102
RTVSPropertyOp26
 70
     1
102
RTVSPropertyOp27
 70
     1
102
RTVSPropertyOp28
 70
     1
102
RTVSPropertyOp29
 70
     1
102
RTVSPropertyOp30
 70
     1
102
RTVSPropertyOp31
 70
     1
102
RTVSPropertyOp32
 70
     1
102
RTVSPropertyOp33
 70
     1
102
RTVSPropertyOp34
 70
     1
102
RTVSPropertyOp35
 70
     1
102
RTVSPropertyOp36
 70
     1
102
RTVSPropertyOp37
 70
     1
102
RTVSPropertyOp38
 70
     1
102
RTVSPropertyOp39
 70
     1
102
RTVSPropertyOp40
 70
     1
102
RTVSPropertyOp41
 70
     1
102
RTVSPropertyOp42
 70
     1
102
RTVSPropertyOp43
 70
     1
102
RTVSPropertyOp44
 70
     1
102
RTVSPropertyOp45
 70
     1
102
RTVSPropertyOp46
 70
     1
102
RTVSPropertyOp47
 70
     1
102
RTVSPropertyOp48
 70
     1
102
RTVSPropertyOp49
 70
     1
102
RTVSPropertyOp50
 70
     1
102
RTVSPropertyOp51
 70
     0
102
RTVSPropertyOp52
 70
     0
102
RTVSPropertyOp53
 70
     1
102
RTVSPropertyOp54
 70
     1
102
RTVSPropertyOp55
 70
     1
102
RTVSPropertyOp56
 70
     1
102
RTVSPropertyOp57
 70
     1
102
RTVSPost2010Prop28
280
     0
102
RTVSPost2010PropOp28
 70
     1
102
RTVSPost2010Prop29
280
     1
102
RTVSPost2010PropOp29
 70
     1
102
RTVSPost2010Prop30
280
     1
102
RTVSPost2010PropOp30
 70
     1
102
RTVSPost2010Prop31
280
     0
102
RTVSPost2010PropOp31
 70
     1
102
RTVSPost2010Prop32
280
     0
102
RTVSPost2010PropOp32
 70
     1
102
RTVSPost2010Prop33
280
     0
102
RTVSPost2010PropOp33
 70
     1
102
RTVSPost2010Prop34
280
     0
102
RTVSPost2010PropOp34
 70
     1
102
RTVSPost2010Prop35
280
     0
102
RTVSPost2010PropOp35
 70
     1
102
RTVSPost2010Prop36
280
     0
102
RTVSPost2010PropOp36
 70
     1
102
RTVSPost2010Prop37
 90
       50
102
RTVSPost2010PropOp37
 70
     1
102
RTVSPost2010Prop38
140
0.0
102
RTVSPost2010PropOp38
 70
     1
102
RTVSPost2010Prop39
140
1.0
102
RTVSPost2010PropOp39
 70
     1
102
RTVSPost2010Prop40
 90
        0
102
RTVSPost2010PropOp40
 70
     1
102
RTVSPost2010Prop41ColorIndex
 90
       18
102
RTVSPost2010Prop41ColorRGB
 90
        0
102
RTVSPost2010PropOp41
 70
     1
102
RTVSPost2010Prop42
 90
       50
102
RTVSPost2010PropOp42
 70
     1
102
RTVSPost2010Prop43
 90
        3
102
RTVSPost2010PropOp43
 70
     1
102
RTVSPost2010Prop44ColorIndex
 90
        5
102
RTVSPost2010Prop44ColorRGB
 90
      255
102
RTVSPost2010PropOp44
 70
     1
102
RTVSPost2010Prop45
280
     0
102
RTVSPost2010PropOp45
 70
     1
102
RTVSPost2010Prop46
 90
       50
102
RTVSPost2010PropOp46
 70
     1
102
RTVSPost2010Prop47
 90
       50
102
RTVSPost2010PropOp47
 70
     1
102
RTVSPost2010Prop48
 90
       50
102
RTVSPost2010PropOp48
 70
     1
102
RTVSPost2010Prop49
280
     0
102
RTVSPost2010PropOp49
 70
     1
102
RTVSPost2010Prop50
 90
       50
102
RTVSPost2010PropOp50
 70
     1
102
RTVSPost2010Prop51ColorIndex
 90
      256
102
RTVSPost2010Prop51ColorRGB
 90
-16777216
102
RTVSPost2010PropOp51
 70
     0
102
RTVSPost2010Prop52
140
1.0
102
RTVSPost2010PropOp52
 70
     0
102
RTVSPost2010Prop53
 90
        2
102
RTVSPost2010PropOp53
 70
     1
102
RTVSPost2010Prop54
  1
strokes_ogs.tif
102
RTVSPost2010PropOp54
 70
     1
102
RTVSPost2010Prop55
280
     0
102
RTVSPost2010PropOp55
 70
     1
102
RTVSPost2010Prop56
140
1.0
102
RTVSPost2010PropOp56
 70
     1
102
RTVSPost2010Prop57
140
1.0
102
RTVSPost2010PropOp57
 70
     1
  0
XRECORD
  5
389
102
{ACAD_REACTORS
330
388
102
}
330
388
100
AcDbXrecord
280
     1
102
RTVSPropertyOp0
 70
     1
102
RTVSPropertyOp1
 70
     1
102
RTVSPropertyOp2
 70
     1
102
RTVSPropertyOp3
 70
     1
102
RTVSPropertyOp4
 70
     1
102
RTVSPropertyOp5
 70
     1
102
RTVSPropertyOp6
 70
     1
102
RTVSPropertyOp7
 70
     1
102
RTVSPropertyOp8
 70
     1
102
RTVSPropertyOp9
 70
     1
102
RTVSPropertyOp10
 70
     1
102
RTVSPropertyOp11
 70
     1
102
RTVSPropertyOp12
 70
     1
102
RTVSPropertyOp13
 70
     1
102
RTVSPropertyOp14
 70
     1
102
RTVSPropertyOp15
 70
     1
102
RTVSPropertyOp16
 70
     1
102
RTVSPropertyOp17
 70
     1
102
RTVSPropertyOp18
 70
     1
102
RTVSPropertyOp19
 70
     1
102
RTVSPropertyOp20
 70
     1
102
RTVSPropertyOp21
 70
     1
102
RTVSPropertyOp22
 70
     1
102
RTVSPropertyOp23
 70
     1
102
RTVSPropertyOp24
 70
     1
102
RTVSPropertyOp25
 70
     1
102
RTVSPropertyOp26
 70
     1
102
RTVSPropertyOp27
 70
     1
102
RTVSPropertyOp28
 70
     1
102
RTVSPropertyOp29
 70
     1
102
RTVSPropertyOp30
 70
     1
102
RTVSPropertyOp31
 70
     1
102
RTVSPropertyOp32
 70
     1
102
RTVSPropertyOp33
 70
     1
102
RTVSPropertyOp34
 70
     1
102
RTVSPropertyOp35
 70
     1
102
RTVSPropertyOp36
 70
     1
102
RTVSPropertyOp37
 70
     1
102
RTVSPropertyOp38
 70
     1
102
RTVSPropertyOp39
 70
     1
102
RTVSPropertyOp40
 70
     1
102
RTVSPropertyOp41
 70
     1
102
RTVSPropertyOp42
 70
     1
102
RTVSPropertyOp43
 70
     1
102
RTVSPropertyOp44
 70
     1
102
RTVSPropertyOp45
 70
     1
102
RTVSPropertyOp46
 70
     1
102
RTVSPropertyOp47
 70
     1
102
RTVSPropertyOp48
 70
     1
102
RTVSPropertyOp49
 70
     1
102
RTVSPropertyOp50
 70
     1
102
RTVSPropertyOp51
 70
     0
102
RTVSPropertyOp52
 70
     0
102
RTVSPropertyOp53
 70
     1
102
RTVSPropertyOp54
 70
     1
102
RTVSPropertyOp55
 70
     1
102
RTVSPropertyOp56
 70
     1
102
RTVSPropertyOp57
 70
     1
102
RTVSPost2010Prop28
280
     0
102
RTVSPost2010PropOp28
 70
     1
102
RTVSPost2010Prop29
280
     1
102
RTVSPost2010PropOp29
 70
     1
102
RTVSPost2010Prop30
280
     1
102
RTVSPost2010PropOp30
 70
     1
102
RTVSPost2010Prop31
280
     0
102
RTVSPost2010PropOp31
 70
     1
102
RTVSPost2010Prop32
280
     0
102
RTVSPost2010PropOp32
 70
     1
102
RTVSPost2010Prop33
280
     0
102
RTVSPost2010PropOp33
 70
     1
102
RTVSPost2010Prop34
280
     0
102
RTVSPost2010PropOp34
 70
     1
102
RTVSPost2010Prop35
280
     0
102
RTVSPost2010PropOp35
 70
     1
102
RTVSPost2010Prop36
280
     0
102
RTVSPost2010PropOp36
 70
     1
102
RTVSPost2010Prop37
 90
       50
102
RTVSPost2010PropOp37
 70
     1
102
RTVSPost2010Prop38
140
0.0
102
RTVSPost2010PropOp38
 70
     1
102
RTVSPost2010Prop39
140
1.0
102
RTVSPost2010PropOp39
 70
     1
102
RTVSPost2010Prop40
 90
        0
102
RTVSPost2010PropOp40
 70
     1
102
RTVSPost2010Prop41ColorIndex
 90
       18
102
RTVSPost2010Prop41ColorRGB
 90
        0
102
RTVSPost2010PropOp41
 70
     1
102
RTVSPost2010Prop42
 90
       50
102
RTVSPost2010PropOp42
 70
     1
102
RTVSPost2010Prop43
 90
        3
102
RTVSPost2010PropOp43
 70
     1
102
RTVSPost2010Prop44ColorIndex
 90
        5
102
RTVSPost2010Prop44ColorRGB
 90
      255
102
RTVSPost2010PropOp44
 70
     1
102
RTVSPost2010Prop45
280
     0
102
RTVSPost2010PropOp45
 70
     1
102
RTVSPost2010Prop46
 90
       50
102
RTVSPost2010PropOp46
 70
     1
102
RTVSPost2010Prop47
 90
       50
102
RTVSPost2010PropOp47
 70
     1
102
RTVSPost2010Prop48
 90
       50
102
RTVSPost2010PropOp48
 70
     1
102
RTVSPost2010Prop49
280
     0
102
RTVSPost2010PropOp49
 70
     1
102
RTVSPost2010Prop50
 90
       50
102
RTVSPost2010PropOp50
 70
     1
102
RTVSPost2010Prop51ColorIndex
 90
      256
102
RTVSPost2010Prop51ColorRGB
 90
-16777216
102
RTVSPost2010PropOp51
 70
     0
102
RTVSPost2010Prop52
140
1.0
102
RTVSPost2010PropOp52
 70
     0
102
RTVSPost2010Prop53
 90
        2
102
RTVSPost2010PropOp53
 70
     1
102
RTVSPost2010Prop54
  1
strokes_ogs.tif
102
RTVSPost2010PropOp54
 70
     1
102
RTVSPost2010Prop55
280
     0
102
RTVSPost2010PropOp55
 70
     1
102
RTVSPost2010Prop56
140
1.0
102
RTVSPost2010PropOp56
 70
     1
102
RTVSPost2010Prop57
140
1.0
102
RTVSPost2010PropOp57
 70
     1
  0
XRECORD
  5
38B
102
{ACAD_REACTORS
330
38A
102
}
330
38A
100
AcDbXrecord
280
     1
102
RTVSPropertyOp0
 70
     1
102
RTVSPropertyOp1
 70
     1
102
RTVSPropertyOp2
 70
     1
102
RTVSPropertyOp3
 70
     1
102
RTVSPropertyOp4
 70
     1
102
RTVSPropertyOp5
 70
     1
102
RTVSPropertyOp6
 70
     1
102
RTVSPropertyOp7
 70
     1
102
RTVSPropertyOp8
 70
     1
102
RTVSPropertyOp9
 70
     1
102
RTVSPropertyOp10
 70
     1
102
RTVSPropertyOp11
 70
     1
102
RTVSPropertyOp12
 70
     1
102
RTVSPropertyOp13
 70
     1
102
RTVSPropertyOp14
 70
     1
102
RTVSPropertyOp15
 70
     1
102
RTVSPropertyOp16
 70
     1
102
RTVSPropertyOp17
 70
     1
102
RTVSPropertyOp18
 70
     1
102
RTVSPropertyOp19
 70
     1
102
RTVSPropertyOp20
 70
     1
102
RTVSPropertyOp21
 70
     1
102
RTVSPropertyOp22
 70
     1
102
RTVSPropertyOp23
 70
     1
102
RTVSPropertyOp24
 70
     1
102
RTVSPropertyOp25
 70
     1
102
RTVSPropertyOp26
 70
     1
102
RTVSPropertyOp27
 70
     1
102
RTVSPropertyOp28
 70
     1
102
RTVSPropertyOp29
 70
     1
102
RTVSPropertyOp30
 70
     1
102
RTVSPropertyOp31
 70
     1
102
RTVSPropertyOp32
 70
     1
102
RTVSPropertyOp33
 70
     1
102
RTVSPropertyOp34
 70
     1
102
RTVSPropertyOp35
 70
     1
102
RTVSPropertyOp36
 70
     1
102
RTVSPropertyOp37
 70
     1
102
RTVSPropertyOp38
 70
     1
102
RTVSPropertyOp39
 70
     1
102
RTVSPropertyOp40
 70
     1
102
RTVSPropertyOp41
 70
     1
102
RTVSPropertyOp42
 70
     1
102
RTVSPropertyOp43
 70
     1
102
RTVSPropertyOp44
 70
     1
102
RTVSPropertyOp45
 70
     1
102
RTVSPropertyOp46
 70
     1
102
RTVSPropertyOp47
 70
     1
102
RTVSPropertyOp48
 70
     1
102
RTVSPropertyOp49
 70
     1
102
RTVSPropertyOp50
 70
     1
102
RTVSPropertyOp51
 70
     0
102
RTVSPropertyOp52
 70
     0
102
RTVSPropertyOp53
 70
     1
102
RTVSPropertyOp54
 70
     1
102
RTVSPropertyOp55
 70
     1
102
RTVSPropertyOp56
 70
     1
102
RTVSPropertyOp57
 70
     1
102
RTVSPost2010Prop28
280
     0
102
RTVSPost2010PropOp28
 70
     1
102
RTVSPost2010Prop29
280
     1
102
RTVSPost2010PropOp29
 70
     1
102
RTVSPost2010Prop30
280
     1
102
RTVSPost2010PropOp30
 70
     1
102
RTVSPost2010Prop31
280
     0
102
RTVSPost2010PropOp31
 70
     1
102
RTVSPost2010Prop32
280
     0
102
RTVSPost2010PropOp32
 70
     1
102
RTVSPost2010Prop33
280
     0
102
RTVSPost2010PropOp33
 70
     1
102
RTVSPost2010Prop34
280
     0
102
RTVSPost2010PropOp34
 70
     1
102
RTVSPost2010Prop35
280
     0
102
RTVSPost2010PropOp35
 70
     1
102
RTVSPost2010Prop36
280
     0
102
RTVSPost2010PropOp36
 70
     1
102
RTVSPost2010Prop37
 90
       50
102
RTVSPost2010PropOp37
 70
     1
102
RTVSPost2010Prop38
140
0.0
102
RTVSPost2010PropOp38
 70
     1
102
RTVSPost2010Prop39
140
1.0
102
RTVSPost2010PropOp39
 70
     1
102
RTVSPost2010Prop40
 90
        0
102
RTVSPost2010PropOp40
 70
     1
102
RTVSPost2010Prop41ColorIndex
 90
       18
102
RTVSPost2010Prop41ColorRGB
 90
        0
102
RTVSPost2010PropOp41
 70
     1
102
RTVSPost2010Prop42
 90
       50
102
RTVSPost2010PropOp42
 70
     1
102
RTVSPost2010Prop43
 90
        3
102
RTVSPost2010PropOp43
 70
     1
102
RTVSPost2010Prop44ColorIndex
 90
        5
102
RTVSPost2010Prop44ColorRGB
 90
      255
102
RTVSPost2010PropOp44
 70
     1
102
RTVSPost2010Prop45
280
     0
102
RTVSPost2010PropOp45
 70
     1
102
RTVSPost2010Prop46
 90
       50
102
RTVSPost2010PropOp46
 70
     1
102
RTVSPost2010Prop47
 90
       50
102
RTVSPost2010PropOp47
 70
     1
102
RTVSPost2010Prop48
 90
       50
102
RTVSPost2010PropOp48
 70
     1
102
RTVSPost2010Prop49
280
     0
102
RTVSPost2010PropOp49
 70
     1
102
RTVSPost2010Prop50
 90
       50
102
RTVSPost2010PropOp50
 70
     1
102
RTVSPost2010Prop51ColorIndex
 90
      256
102
RTVSPost2010Prop51ColorRGB
 90
-16777216
102
RTVSPost2010PropOp51
 70
     0
102
RTVSPost2010Prop52
140
1.0
102
RTVSPost2010PropOp52
 70
     0
102
RTVSPost2010Prop53
 90
        2
102
RTVSPost2010PropOp53
 70
     1
102
RTVSPost2010Prop54
  1
strokes_ogs.tif
102
RTVSPost2010PropOp54
 70
     1
102
RTVSPost2010Prop55
280
     0
102
RTVSPost2010PropOp55
 70
     1
102
RTVSPost2010Prop56
140
1.0
102
RTVSPost2010PropOp56
 70
     1
102
RTVSPost2010Prop57
140
1.0
102
RTVSPost2010PropOp57
 70
     1
  0
XRECORD
  5
391
102
{ACAD_REACTORS
330
390
102
}
330
390
100
AcDbXrecord
280
     1
102
RTVSPropertyOp0
 70
     1
102
RTVSPropertyOp1
 70
     1
102
RTVSPropertyOp2
 70
     1
102
RTVSPropertyOp3
 70
     1
102
RTVSPropertyOp4
 70
     1
102
RTVSPropertyOp5
 70
     1
102
RTVSPropertyOp6
 70
     1
102
RTVSPropertyOp7
 70
     1
102
RTVSPropertyOp8
 70
     1
102
RTVSPropertyOp9
 70
     1
102
RTVSPropertyOp10
 70
     1
102
RTVSPropertyOp11
 70
     1
102
RTVSPropertyOp12
 70
     1
102
RTVSPropertyOp13
 70
     1
102
RTVSPropertyOp14
 70
     1
102
RTVSPropertyOp15
 70
     1
102
RTVSPropertyOp16
 70
     1
102
RTVSPropertyOp17
 70
     1
102
RTVSPropertyOp18
 70
     1
102
RTVSPropertyOp19
 70
     1
102
RTVSPropertyOp20
 70
     1
102
RTVSPropertyOp21
 70
     1
102
RTVSPropertyOp22
 70
     1
102
RTVSPropertyOp23
 70
     1
102
RTVSPropertyOp24
 70
     1
102
RTVSPropertyOp25
 70
     1
102
RTVSPropertyOp26
 70
     1
102
RTVSPropertyOp27
 70
     1
102
RTVSPropertyOp28
 70
     1
102
RTVSPropertyOp29
 70
     1
102
RTVSPropertyOp30
 70
     1
102
RTVSPropertyOp31
 70
     1
102
RTVSPropertyOp32
 70
     1
102
RTVSPropertyOp33
 70
     1
102
RTVSPropertyOp34
 70
     1
102
RTVSPropertyOp35
 70
     1
102
RTVSPropertyOp36
 70
     1
102
RTVSPropertyOp37
 70
     1
102
RTVSPropertyOp38
 70
     1
102
RTVSPropertyOp39
 70
     1
102
RTVSPropertyOp40
 70
     1
102
RTVSPropertyOp41
 70
     1
102
RTVSPropertyOp42
 70
     1
102
RTVSPropertyOp43
 70
     1
102
RTVSPropertyOp44
 70
     1
102
RTVSPropertyOp45
 70
     1
102
RTVSPropertyOp46
 70
     1
102
RTVSPropertyOp47
 70
     1
102
RTVSPropertyOp48
 70
     1
102
RTVSPropertyOp49
 70
     1
102
RTVSPropertyOp50
 70
     1
102
RTVSPropertyOp51
 70
     0
102
RTVSPropertyOp52
 70
     0
102
RTVSPropertyOp53
 70
     1
102
RTVSPropertyOp54
 70
     1
102
RTVSPropertyOp55
 70
     1
102
RTVSPropertyOp56
 70
     1
102
RTVSPropertyOp57
 70
     1
102
RTVSPost2010Prop28
280
     0
102
RTVSPost2010PropOp28
 70
     1
102
RTVSPost2010Prop29
280
     1
102
RTVSPost2010PropOp29
 70
     1
102
RTVSPost2010Prop30
280
     1
102
RTVSPost2010PropOp30
 70
     1
102
RTVSPost2010Prop31
280
     0
102
RTVSPost2010PropOp31
 70
     1
102
RTVSPost2010Prop32
280
     0
102
RTVSPost2010PropOp32
 70
     1
102
RTVSPost2010Prop33
280
     0
102
RTVSPost2010PropOp33
 70
     1
102
RTVSPost2010Prop34
280
     0
102
RTVSPost2010PropOp34
 70
     1
102
RTVSPost2010Prop35
280
     0
102
RTVSPost2010PropOp35
 70
     1
102
RTVSPost2010Prop36
280
     0
102
RTVSPost2010PropOp36
 70
     1
102
RTVSPost2010Prop37
 90
       50
102
RTVSPost2010PropOp37
 70
     1
102
RTVSPost2010Prop38
140
0.0
102
RTVSPost2010PropOp38
 70
     1
102
RTVSPost2010Prop39
140
1.0
102
RTVSPost2010PropOp39
 70
     1
102
RTVSPost2010Prop40
 90
        0
102
RTVSPost2010PropOp40
 70
     1
102
RTVSPost2010Prop41ColorIndex
 90
       18
102
RTVSPost2010Prop41ColorRGB
 90
        0
102
RTVSPost2010PropOp41
 70
     1
102
RTVSPost2010Prop42
 90
       50
102
RTVSPost2010PropOp42
 70
     1
102
RTVSPost2010Prop43
 90
        3
102
RTVSPost2010PropOp43
 70
     1
102
RTVSPost2010Prop44ColorIndex
 90
        5
102
RTVSPost2010Prop44ColorRGB
 90
      255
102
RTVSPost2010PropOp44
 70
     1
102
RTVSPost2010Prop45
280
     0
102
RTVSPost2010PropOp45
 70
     1
102
RTVSPost2010Prop46
 90
       50
102
RTVSPost2010PropOp46
 70
     1
102
RTVSPost2010Prop47
 90
       50
102
RTVSPost2010PropOp47
 70
     1
102
RTVSPost2010Prop48
 90
       50
102
RTVSPost2010PropOp48
 70
     1
102
RTVSPost2010Prop49
280
     0
102
RTVSPost2010PropOp49
 70
     1
102
RTVSPost2010Prop50
 90
       50
102
RTVSPost2010PropOp50
 70
     1
102
RTVSPost2010Prop51ColorIndex
 90
      256
102
RTVSPost2010Prop51ColorRGB
 90
-16777216
102
RTVSPost2010PropOp51
 70
     0
102
RTVSPost2010Prop52
140
1.0
102
RTVSPost2010PropOp52
 70
     0
102
RTVSPost2010Prop53
 90
        2
102
RTVSPost2010PropOp53
 70
     1
102
RTVSPost2010Prop54
  1
strokes_ogs.tif
102
RTVSPost2010PropOp54
 70
     1
102
RTVSPost2010Prop55
280
     0
102
RTVSPost2010PropOp55
 70
     1
102
RTVSPost2010Prop56
140
1.0
102
RTVSPost2010PropOp56
 70
     1
102
RTVSPost2010Prop57
140
1.0
102
RTVSPost2010PropOp57
 70
     1
  0
XRECORD
  5
3A5
102
{ACAD_REACTORS
330
3A4
102
}
330
3A4
100
AcDbXrecord
280
     1
102
RTVSPropertyOp0
 70
     0
102
RTVSPropertyOp1
 70
     0
102
RTVSPropertyOp2
 70
     0
102
RTVSPropertyOp3
 70
     0
102
RTVSPropertyOp4
 70
     0
102
RTVSPropertyOp5
 70
     0
102
RTVSPropertyOp6
 70
     0
102
RTVSPropertyOp7
 70
     0
102
RTVSPropertyOp8
 70
     0
102
RTVSPropertyOp9
 70
     0
102
RTVSPropertyOp10
 70
     0
102
RTVSPropertyOp11
 70
     0
102
RTVSPropertyOp12
 70
     0
102
RTVSPropertyOp13
 70
     0
102
RTVSPropertyOp14
 70
     2
102
RTVSPropertyOp15
 70
     0
102
RTVSPropertyOp16
 70
     0
102
RTVSPropertyOp17
 70
     0
102
RTVSPropertyOp18
 70
     0
102
RTVSPropertyOp19
 70
     0
102
RTVSPropertyOp20
 70
     0
102
RTVSPropertyOp21
 70
     0
102
RTVSPropertyOp22
 70
     0
102
RTVSPropertyOp23
 70
     0
102
RTVSPropertyOp24
 70
     0
102
RTVSPropertyOp25
 70
     0
102
RTVSPropertyOp26
 70
     0
102
RTVSPropertyOp27
 70
     0
102
RTVSPropertyOp28
 70
     0
102
RTVSPropertyOp29
 70
     0
102
RTVSPropertyOp30
 70
     0
102
RTVSPropertyOp31
 70
     0
102
RTVSPropertyOp32
 70
     0
102
RTVSPropertyOp33
 70
     0
102
RTVSPropertyOp34
 70
     0
102
RTVSPropertyOp35
 70
     0
102
RTVSPropertyOp36
 70
     0
102
RTVSPropertyOp37
 70
     0
102
RTVSPropertyOp38
 70
     0
102
RTVSPropertyOp39
 70
     0
102
RTVSPropertyOp40
 70
     0
102
RTVSPropertyOp41
 70
     0
102
RTVSPropertyOp42
 70
     0
102
RTVSPropertyOp43
 70
     0
102
RTVSPropertyOp44
 70
     0
102
RTVSPropertyOp45
 70
     0
102
RTVSPropertyOp46
 70
     0
102
RTVSPropertyOp47
 70
     0
102
RTVSPropertyOp48
 70
     0
102
RTVSPropertyOp49
 70
     0
102
RTVSPropertyOp50
 70
     0
102
RTVSPropertyOp51
 70
     0
102
RTVSPropertyOp52
 70
     0
102
RTVSPropertyOp53
 70
     0
102
RTVSPropertyOp54
 70
     0
102
RTVSPropertyOp55
 70
     0
102
RTVSPropertyOp56
 70
     0
102
RTVSPropertyOp57
 70
     0
102
RTVSPost2010Prop28
280
     0
102
RTVSPost2010PropOp28
 70
     0
102
RTVSPost2010Prop29
280
     1
102
RTVSPost2010PropOp29
 70
     0
102
RTVSPost2010Prop30
280
     1
102
RTVSPost2010PropOp30
 70
     0
102
RTVSPost2010Prop31
280
     0
102
RTVSPost2010PropOp31
 70
     0
102
RTVSPost2010Prop32
280
     0
102
RTVSPost2010PropOp32
 70
     0
102
RTVSPost2010Prop33
280
     0
102
RTVSPost2010PropOp33
 70
     0
102
RTVSPost2010Prop34
280
     0
102
RTVSPost2010PropOp34
 70
     0
102
RTVSPost2010Prop35
280
     0
102
RTVSPost2010PropOp35
 70
     0
102
RTVSPost2010Prop36
280
     0
102
RTVSPost2010PropOp36
 70
     0
102
RTVSPost2010Prop37
 90
       50
102
RTVSPost2010PropOp37
 70
     0
102
RTVSPost2010Prop38
140
0.0
102
RTVSPost2010PropOp38
 70
     0
102
RTVSPost2010Prop39
140
1.0
102
RTVSPost2010PropOp39
 70
     0
102
RTVSPost2010Prop40
 90
        0
102
RTVSPost2010PropOp40
 70
     0
102
RTVSPost2010Prop41ColorIndex
 90
       18
102
RTVSPost2010Prop41ColorRGB
 90
        0
102
RTVSPost2010PropOp41
 70
     0
102
RTVSPost2010Prop42
 90
       50
102
RTVSPost2010PropOp42
 70
     0
102
RTVSPost2010Prop43
 90
        3
102
RTVSPost2010PropOp43
 70
     0
102
RTVSPost2010Prop44ColorIndex
 90
        5
102
RTVSPost2010Prop44ColorRGB
 90
      255
102
RTVSPost2010PropOp44
 70
     0
102
RTVSPost2010Prop45
280
     0
102
RTVSPost2010PropOp45
 70
     0
102
RTVSPost2010Prop46
 90
       50
102
RTVSPost2010PropOp46
 70
     0
102
RTVSPost2010Prop47
 90
       50
102
RTVSPost2010PropOp47
 70
     0
102
RTVSPost2010Prop48
 90
       50
102
RTVSPost2010PropOp48
 70
     0
102
RTVSPost2010Prop49
280
     0
102
RTVSPost2010PropOp49
 70
     0
102
RTVSPost2010Prop50
 90
       50
102
RTVSPost2010PropOp50
 70
     0
102
RTVSPost2010Prop51ColorIndex
 90
      256
102
RTVSPost2010Prop51ColorRGB
 90
-16777216
102
RTVSPost2010PropOp51
 70
     0
102
RTVSPost2010Prop52
140
1.0
102
RTVSPost2010PropOp52
 70
     0
102
RTVSPost2010Prop53
 90
        2
102
RTVSPost2010PropOp53
 70
     0
102
RTVSPost2010Prop54
  1
strokes_ogs.tif
102
RTVSPost2010PropOp54
 70
     0
102
RTVSPost2010Prop55
280
     0
102
RTVSPost2010PropOp55
 70
     0
102
RTVSPost2010Prop56
140
1.0
102
RTVSPost2010PropOp56
 70
     0
102
RTVSPost2010Prop57
140
1.0
102
RTVSPost2010PropOp57
 70
     0
  0
XRECORD
  5
39F
102
{ACAD_REACTORS
330
39E
102
}
330
39E
100
AcDbXrecord
280
     1
102
RTVSPropertyOp0
 70
     1
102
RTVSPropertyOp1
 70
     1
102
RTVSPropertyOp2
 70
     1
102
RTVSPropertyOp3
 70
     1
102
RTVSPropertyOp4
 70
     1
102
RTVSPropertyOp5
 70
     1
102
RTVSPropertyOp6
 70
     1
102
RTVSPropertyOp7
 70
     1
102
RTVSPropertyOp8
 70
     1
102
RTVSPropertyOp9
 70
     1
102
RTVSPropertyOp10
 70
     1
102
RTVSPropertyOp11
 70
     1
102
RTVSPropertyOp12
 70
     1
102
RTVSPropertyOp13
 70
     1
102
RTVSPropertyOp14
 70
     1
102
RTVSPropertyOp15
 70
     1
102
RTVSPropertyOp16
 70
     1
102
RTVSPropertyOp17
 70
     1
102
RTVSPropertyOp18
 70
     1
102
RTVSPropertyOp19
 70
     1
102
RTVSPropertyOp20
 70
     1
102
RTVSPropertyOp21
 70
     1
102
RTVSPropertyOp22
 70
     1
102
RTVSPropertyOp23
 70
     1
102
RTVSPropertyOp24
 70
     1
102
RTVSPropertyOp25
 70
     1
102
RTVSPropertyOp26
 70
     1
102
RTVSPropertyOp27
 70
     1
102
RTVSPropertyOp28
 70
     1
102
RTVSPropertyOp29
 70
     1
102
RTVSPropertyOp30
 70
     1
102
RTVSPropertyOp31
 70
     1
102
RTVSPropertyOp32
 70
     1
102
RTVSPropertyOp33
 70
     1
102
RTVSPropertyOp34
 70
     1
102
RTVSPropertyOp35
 70
     1
102
RTVSPropertyOp36
 70
     1
102
RTVSPropertyOp37
 70
     1
102
RTVSPropertyOp38
 70
     1
102
RTVSPropertyOp39
 70
     1
102
RTVSPropertyOp40
 70
     1
102
RTVSPropertyOp41
 70
     1
102
RTVSPropertyOp42
 70
     1
102
RTVSPropertyOp43
 70
     1
102
RTVSPropertyOp44
 70
     1
102
RTVSPropertyOp45
 70
     1
102
RTVSPropertyOp46
 70
     1
102
RTVSPropertyOp47
 70
     1
102
RTVSPropertyOp48
 70
     1
102
RTVSPropertyOp49
 70
     1
102
RTVSPropertyOp50
 70
     1
102
RTVSPropertyOp51
 70
     0
102
RTVSPropertyOp52
 70
     0
102
RTVSPropertyOp53
 70
     1
102
RTVSPropertyOp54
 70
     1
102
RTVSPropertyOp55
 70
     1
102
RTVSPropertyOp56
 70
     1
102
RTVSPropertyOp57
 70
     1
102
RTVSPost2010Prop28
280
     0
102
RTVSPost2010PropOp28
 70
     1
102
RTVSPost2010Prop29
280
     1
102
RTVSPost2010PropOp29
 70
     1
102
RTVSPost2010Prop30
280
     1
102
RTVSPost2010PropOp30
 70
     1
102
RTVSPost2010Prop31
280
     0
102
RTVSPost2010PropOp31
 70
     1
102
RTVSPost2010Prop32
280
     0
102
RTVSPost2010PropOp32
 70
     1
102
RTVSPost2010Prop33
280
     0
102
RTVSPost2010PropOp33
 70
     1
102
RTVSPost2010Prop34
280
     0
102
RTVSPost2010PropOp34
 70
     1
102
RTVSPost2010Prop35
280
     0
102
RTVSPost2010PropOp35
 70
     1
102
RTVSPost2010Prop36
280
     0
102
RTVSPost2010PropOp36
 70
     1
102
RTVSPost2010Prop37
 90
       50
102
RTVSPost2010PropOp37
 70
     1
102
RTVSPost2010Prop38
140
0.0
102
RTVSPost2010PropOp38
 70
     1
102
RTVSPost2010Prop39
140
1.0
102
RTVSPost2010PropOp39
 70
     1
102
RTVSPost2010Prop40
 90
        0
102
RTVSPost2010PropOp40
 70
     1
102
RTVSPost2010Prop41ColorIndex
 90
       18
102
RTVSPost2010Prop41ColorRGB
 90
        0
102
RTVSPost2010PropOp41
 70
     1
102
RTVSPost2010Prop42
 90
       50
102
RTVSPost2010PropOp42
 70
     1
102
RTVSPost2010Prop43
 90
        3
102
RTVSPost2010PropOp43
 70
     1
102
RTVSPost2010Prop44ColorIndex
 90
        5
102
RTVSPost2010Prop44ColorRGB
 90
      255
102
RTVSPost2010PropOp44
 70
     1
102
RTVSPost2010Prop45
280
     0
102
RTVSPost2010PropOp45
 70
     1
102
RTVSPost2010Prop46
 90
       50
102
RTVSPost2010PropOp46
 70
     1
102
RTVSPost2010Prop47
 90
       50
102
RTVSPost2010PropOp47
 70
     1
102
RTVSPost2010Prop48
 90
       50
102
RTVSPost2010PropOp48
 70
     1
102
RTVSPost2010Prop49
280
     0
102
RTVSPost2010PropOp49
 70
     1
102
RTVSPost2010Prop50
 90
       50
102
RTVSPost2010PropOp50
 70
     1
102
RTVSPost2010Prop51ColorIndex
 90
      256
102
RTVSPost2010Prop51ColorRGB
 90
-16777216
102
RTVSPost2010PropOp51
 70
     0
102
RTVSPost2010Prop52
140
1.0
102
RTVSPost2010PropOp52
 70
     0
102
RTVSPost2010Prop53
 90
        2
102
RTVSPost2010PropOp53
 70
     1
102
RTVSPost2010Prop54
  1
strokes_ogs.tif
102
RTVSPost2010PropOp54
 70
     1
102
RTVSPost2010Prop55
280
     0
102
RTVSPost2010PropOp55
 70
     1
102
RTVSPost2010Prop56
140
1.0
102
RTVSPost2010PropOp56
 70
     1
102
RTVSPost2010Prop57
140
1.0
102
RTVSPost2010PropOp57
 70
     1
  0
XRECORD
  5
3A7
102
{ACAD_REACTORS
330
3A6
102
}
330
3A6
100
AcDbXrecord
280
     1
102
RTVSPropertyOp0
 70
     0
102
RTVSPropertyOp1
 70
     0
102
RTVSPropertyOp2
 70
     0
102
RTVSPropertyOp3
 70
     0
102
RTVSPropertyOp4
 70
     0
102
RTVSPropertyOp5
 70
     0
102
RTVSPropertyOp6
 70
     0
102
RTVSPropertyOp7
 70
     0
102
RTVSPropertyOp8
 70
     0
102
RTVSPropertyOp9
 70
     0
102
RTVSPropertyOp10
 70
     0
102
RTVSPropertyOp11
 70
     0
102
RTVSPropertyOp12
 70
     0
102
RTVSPropertyOp13
 70
     0
102
RTVSPropertyOp14
 70
     2
102
RTVSPropertyOp15
 70
     0
102
RTVSPropertyOp16
 70
     0
102
RTVSPropertyOp17
 70
     0
102
RTVSPropertyOp18
 70
     0
102
RTVSPropertyOp19
 70
     0
102
RTVSPropertyOp20
 70
     0
102
RTVSPropertyOp21
 70
     0
102
RTVSPropertyOp22
 70
     0
102
RTVSPropertyOp23
 70
     0
102
RTVSPropertyOp24
 70
     0
102
RTVSPropertyOp25
 70
     0
102
RTVSPropertyOp26
 70
     0
102
RTVSPropertyOp27
 70
     0
102
RTVSPropertyOp28
 70
     0
102
RTVSPropertyOp29
 70
     0
102
RTVSPropertyOp30
 70
     0
102
RTVSPropertyOp31
 70
     0
102
RTVSPropertyOp32
 70
     0
102
RTVSPropertyOp33
 70
     0
102
RTVSPropertyOp34
 70
     0
102
RTVSPropertyOp35
 70
     0
102
RTVSPropertyOp36
 70
     0
102
RTVSPropertyOp37
 70
     0
102
RTVSPropertyOp38
 70
     0
102
RTVSPropertyOp39
 70
     0
102
RTVSPropertyOp40
 70
     0
102
RTVSPropertyOp41
 70
     0
102
RTVSPropertyOp42
 70
     0
102
RTVSPropertyOp43
 70
     0
102
RTVSPropertyOp44
 70
     0
102
RTVSPropertyOp45
 70
     0
102
RTVSPropertyOp46
 70
     0
102
RTVSPropertyOp47
 70
     0
102
RTVSPropertyOp48
 70
     0
102
RTVSPropertyOp49
 70
     0
102
RTVSPropertyOp50
 70
     0
102
RTVSPropertyOp51
 70
     0
102
RTVSPropertyOp52
 70
     0
102
RTVSPropertyOp53
 70
     0
102
RTVSPropertyOp54
 70
     0
102
RTVSPropertyOp55
 70
     0
102
RTVSPropertyOp56
 70
     0
102
RTVSPropertyOp57
 70
     0
102
RTVSPost2010Prop28
280
     0
102
RTVSPost2010PropOp28
 70
     0
102
RTVSPost2010Prop29
280
     1
102
RTVSPost2010PropOp29
 70
     0
102
RTVSPost2010Prop30
280
     1
102
RTVSPost2010PropOp30
 70
     0
102
RTVSPost2010Prop31
280
     0
102
RTVSPost2010PropOp31
 70
     0
102
RTVSPost2010Prop32
280
     0
102
RTVSPost2010PropOp32
 70
     0
102
RTVSPost2010Prop33
280
     0
102
RTVSPost2010PropOp33
 70
     0
102
RTVSPost2010Prop34
280
     0
102
RTVSPost2010PropOp34
 70
     0
102
RTVSPost2010Prop35
280
     0
102
RTVSPost2010PropOp35
 70
     0
102
RTVSPost2010Prop36
280
     0
102
RTVSPost2010PropOp36
 70
     0
102
RTVSPost2010Prop37
 90
       50
102
RTVSPost2010PropOp37
 70
     0
102
RTVSPost2010Prop38
140
0.0
102
RTVSPost2010PropOp38
 70
     0
102
RTVSPost2010Prop39
140
1.0
102
RTVSPost2010PropOp39
 70
     0
102
RTVSPost2010Prop40
 90
        0
102
RTVSPost2010PropOp40
 70
     0
102
RTVSPost2010Prop41ColorIndex
 90
       18
102
RTVSPost2010Prop41ColorRGB
 90
        0
102
RTVSPost2010PropOp41
 70
     0
102
RTVSPost2010Prop42
 90
       50
102
RTVSPost2010PropOp42
 70
     0
102
RTVSPost2010Prop43
 90
        3
102
RTVSPost2010PropOp43
 70
     0
102
RTVSPost2010Prop44ColorIndex
 90
        5
102
RTVSPost2010Prop44ColorRGB
 90
      255
102
RTVSPost2010PropOp44
 70
     0
102
RTVSPost2010Prop45
280
     0
102
RTVSPost2010PropOp45
 70
     0
102
RTVSPost2010Prop46
 90
       50
102
RTVSPost2010PropOp46
 70
     0
102
RTVSPost2010Prop47
 90
       50
102
RTVSPost2010PropOp47
 70
     0
102
RTVSPost2010Prop48
 90
       50
102
RTVSPost2010PropOp48
 70
     0
102
RTVSPost2010Prop49
280
     0
102
RTVSPost2010PropOp49
 70
     0
102
RTVSPost2010Prop50
 90
       50
102
RTVSPost2010PropOp50
 70
     0
102
RTVSPost2010Prop51ColorIndex
 90
      256
102
RTVSPost2010Prop51ColorRGB
 90
-16777216
102
RTVSPost2010PropOp51
 70
     0
102
RTVSPost2010Prop52
140
1.0
102
RTVSPost2010PropOp52
 70
     0
102
RTVSPost2010Prop53
 90
        2
102
RTVSPost2010PropOp53
 70
     0
102
RTVSPost2010Prop54
  1
strokes_ogs.tif
102
RTVSPost2010PropOp54
 70
     0
102
RTVSPost2010Prop55
280
     0
102
RTVSPost2010PropOp55
 70
     0
102
RTVSPost2010Prop56
140
1.0
102
RTVSPost2010PropOp56
 70
     0
102
RTVSPost2010Prop57
140
1.0
102
RTVSPost2010PropOp57
 70
     0
  0
XRECORD
  5
395
102
{ACAD_REACTORS
330
394
102
}
330
394
100
AcDbXrecord
280
     1
102
RTVSPropertyOp0
 70
     1
102
RTVSPropertyOp1
 70
     1
102
RTVSPropertyOp2
 70
     1
102
RTVSPropertyOp3
 70
     1
102
RTVSPropertyOp4
 70
     1
102
RTVSPropertyOp5
 70
     1
102
RTVSPropertyOp6
 70
     1
102
RTVSPropertyOp7
 70
     1
102
RTVSPropertyOp8
 70
     1
102
RTVSPropertyOp9
 70
     1
102
RTVSPropertyOp10
 70
     1
102
RTVSPropertyOp11
 70
     1
102
RTVSPropertyOp12
 70
     1
102
RTVSPropertyOp13
 70
     1
102
RTVSPropertyOp14
 70
     1
102
RTVSPropertyOp15
 70
     1
102
RTVSPropertyOp16
 70
     1
102
RTVSPropertyOp17
 70
     1
102
RTVSPropertyOp18
 70
     1
102
RTVSPropertyOp19
 70
     1
102
RTVSPropertyOp20
 70
     1
102
RTVSPropertyOp21
 70
     1
102
RTVSPropertyOp22
 70
     1
102
RTVSPropertyOp23
 70
     1
102
RTVSPropertyOp24
 70
     1
102
RTVSPropertyOp25
 70
     1
102
RTVSPropertyOp26
 70
     1
102
RTVSPropertyOp27
 70
     1
102
RTVSPropertyOp28
 70
     1
102
RTVSPropertyOp29
 70
     1
102
RTVSPropertyOp30
 70
     1
102
RTVSPropertyOp31
 70
     1
102
RTVSPropertyOp32
 70
     1
102
RTVSPropertyOp33
 70
     1
102
RTVSPropertyOp34
 70
     1
102
RTVSPropertyOp35
 70
     1
102
RTVSPropertyOp36
 70
     1
102
RTVSPropertyOp37
 70
     1
102
RTVSPropertyOp38
 70
     1
102
RTVSPropertyOp39
 70
     1
102
RTVSPropertyOp40
 70
     1
102
RTVSPropertyOp41
 70
     1
102
RTVSPropertyOp42
 70
     1
102
RTVSPropertyOp43
 70
     1
102
RTVSPropertyOp44
 70
     1
102
RTVSPropertyOp45
 70
     1
102
RTVSPropertyOp46
 70
     1
102
RTVSPropertyOp47
 70
     1
102
RTVSPropertyOp48
 70
     1
102
RTVSPropertyOp49
 70
     1
102
RTVSPropertyOp50
 70
     1
102
RTVSPropertyOp51
 70
     0
102
RTVSPropertyOp52
 70
     0
102
RTVSPropertyOp53
 70
     1
102
RTVSPropertyOp54
 70
     1
102
RTVSPropertyOp55
 70
     1
102
RTVSPropertyOp56
 70
     1
102
RTVSPropertyOp57
 70
     1
102
RTVSPost2010Prop28
280
     0
102
RTVSPost2010PropOp28
 70
     1
102
RTVSPost2010Prop29
280
     1
102
RTVSPost2010PropOp29
 70
     1
102
RTVSPost2010Prop30
280
     1
102
RTVSPost2010PropOp30
 70
     1
102
RTVSPost2010Prop31
280
     0
102
RTVSPost2010PropOp31
 70
     1
102
RTVSPost2010Prop32
280
     0
102
RTVSPost2010PropOp32
 70
     1
102
RTVSPost2010Prop33
280
     0
102
RTVSPost2010PropOp33
 70
     1
102
RTVSPost2010Prop34
280
     0
102
RTVSPost2010PropOp34
 70
     1
102
RTVSPost2010Prop35
280
     0
102
RTVSPost2010PropOp35
 70
     1
102
RTVSPost2010Prop36
280
     0
102
RTVSPost2010PropOp36
 70
     1
102
RTVSPost2010Prop37
 90
       50
102
RTVSPost2010PropOp37
 70
     1
102
RTVSPost2010Prop38
140
0.0
102
RTVSPost2010PropOp38
 70
     1
102
RTVSPost2010Prop39
140
1.0
102
RTVSPost2010PropOp39
 70
     1
102
RTVSPost2010Prop40
 90
        0
102
RTVSPost2010PropOp40
 70
     1
102
RTVSPost2010Prop41ColorIndex
 90
       18
102
RTVSPost2010Prop41ColorRGB
 90
        0
102
RTVSPost2010PropOp41
 70
     1
102
RTVSPost2010Prop42
 90
       50
102
RTVSPost2010PropOp42
 70
     1
102
RTVSPost2010Prop43
 90
        3
102
RTVSPost2010PropOp43
 70
     1
102
RTVSPost2010Prop44ColorIndex
 90
        5
102
RTVSPost2010Prop44ColorRGB
 90
      255
102
RTVSPost2010PropOp44
 70
     1
102
RTVSPost2010Prop45
280
     0
102
RTVSPost2010PropOp45
 70
     1
102
RTVSPost2010Prop46
 90
       50
102
RTVSPost2010PropOp46
 70
     1
102
RTVSPost2010Prop47
 90
       50
102
RTVSPost2010PropOp47
 70
     1
102
RTVSPost2010Prop48
 90
       50
102
RTVSPost2010PropOp48
 70
     1
102
RTVSPost2010Prop49
280
     0
102
RTVSPost2010PropOp49
 70
     1
102
RTVSPost2010Prop50
 90
       50
102
RTVSPost2010PropOp50
 70
     1
102
RTVSPost2010Prop51ColorIndex
 90
      256
102
RTVSPost2010Prop51ColorRGB
 90
-16777216
102
RTVSPost2010PropOp51
 70
     0
102
RTVSPost2010Prop52
140
1.0
102
RTVSPost2010PropOp52
 70
     0
102
RTVSPost2010Prop53
 90
        2
102
RTVSPost2010PropOp53
 70
     1
102
RTVSPost2010Prop54
  1
strokes_ogs.tif
102
RTVSPost2010PropOp54
 70
     1
102
RTVSPost2010Prop55
280
     0
102
RTVSPost2010PropOp55
 70
     1
102
RTVSPost2010Prop56
140
1.0
102
RTVSPost2010PropOp56
 70
     1
102
RTVSPost2010Prop57
140
1.0
102
RTVSPost2010PropOp57
 70
     1
  0
XRECORD
  5
3B3
102
{ACAD_REACTORS
330
3B2
102
}
330
3B2
100
AcDbXrecord
280
     1
102
RTVSPropertyOp0
 70
     1
102
RTVSPropertyOp1
 70
     1
102
RTVSPropertyOp2
 70
     1
102
RTVSPropertyOp3
 70
     1
102
RTVSPropertyOp4
 70
     1
102
RTVSPropertyOp5
 70
     1
102
RTVSPropertyOp6
 70
     1
102
RTVSPropertyOp7
 70
     1
102
RTVSPropertyOp8
 70
     1
102
RTVSPropertyOp9
 70
     1
102
RTVSPropertyOp10
 70
     1
102
RTVSPropertyOp11
 70
     1
102
RTVSPropertyOp12
 70
     1
102
RTVSPropertyOp13
 70
     1
102
RTVSPropertyOp14
 70
     1
102
RTVSPropertyOp15
 70
     1
102
RTVSPropertyOp16
 70
     1
102
RTVSPropertyOp17
 70
     1
102
RTVSPropertyOp18
 70
     1
102
RTVSPropertyOp19
 70
     1
102
RTVSPropertyOp20
 70
     1
102
RTVSPropertyOp21
 70
     1
102
RTVSPropertyOp22
 70
     1
102
RTVSPropertyOp23
 70
     1
102
RTVSPropertyOp24
 70
     1
102
RTVSPropertyOp25
 70
     1
102
RTVSPropertyOp26
 70
     1
102
RTVSPropertyOp27
 70
     1
102
RTVSPropertyOp28
 70
     1
102
RTVSPropertyOp29
 70
     1
102
RTVSPropertyOp30
 70
     1
102
RTVSPropertyOp31
 70
     1
102
RTVSPropertyOp32
 70
     1
102
RTVSPropertyOp33
 70
     1
102
RTVSPropertyOp34
 70
     1
102
RTVSPropertyOp35
 70
     1
102
RTVSPropertyOp36
 70
     1
102
RTVSPropertyOp37
 70
     1
102
RTVSPropertyOp38
 70
     1
102
RTVSPropertyOp39
 70
     1
102
RTVSPropertyOp40
 70
     1
102
RTVSPropertyOp41
 70
     1
102
RTVSPropertyOp42
 70
     1
102
RTVSPropertyOp43
 70
     1
102
RTVSPropertyOp44
 70
     1
102
RTVSPropertyOp45
 70
     1
102
RTVSPropertyOp46
 70
     1
102
RTVSPropertyOp47
 70
     1
102
RTVSPropertyOp48
 70
     1
102
RTVSPropertyOp49
 70
     1
102
RTVSPropertyOp50
 70
     1
102
RTVSPropertyOp51
 70
     0
102
RTVSPropertyOp52
 70
     0
102
RTVSPropertyOp53
 70
     1
102
RTVSPropertyOp54
 70
     1
102
RTVSPropertyOp55
 70
     1
102
RTVSPropertyOp56
 70
     1
102
RTVSPropertyOp57
 70
     1
102
RTVSPost2010Prop28
280
     0
102
RTVSPost2010PropOp28
 70
     1
102
RTVSPost2010Prop29
280
     1
102
RTVSPost2010PropOp29
 70
     1
102
RTVSPost2010Prop30
280
     1
102
RTVSPost2010PropOp30
 70
     1
102
RTVSPost2010Prop31
280
     0
102
RTVSPost2010PropOp31
 70
     1
102
RTVSPost2010Prop32
280
     0
102
RTVSPost2010PropOp32
 70
     1
102
RTVSPost2010Prop33
280
     0
102
RTVSPost2010PropOp33
 70
     1
102
RTVSPost2010Prop34
280
     0
102
RTVSPost2010PropOp34
 70
     1
102
RTVSPost2010Prop35
280
     0
102
RTVSPost2010PropOp35
 70
     1
102
RTVSPost2010Prop36
280
     0
102
RTVSPost2010PropOp36
 70
     1
102
RTVSPost2010Prop37
 90
       50
102
RTVSPost2010PropOp37
 70
     1
102
RTVSPost2010Prop38
140
0.0
102
RTVSPost2010PropOp38
 70
     1
102
RTVSPost2010Prop39
140
1.0
102
RTVSPost2010PropOp39
 70
     1
102
RTVSPost2010Prop40
 90
        0
102
RTVSPost2010PropOp40
 70
     1
102
RTVSPost2010Prop41ColorIndex
 90
       18
102
RTVSPost2010Prop41ColorRGB
 90
        0
102
RTVSPost2010PropOp41
 70
     1
102
RTVSPost2010Prop42
 90
       50
102
RTVSPost2010PropOp42
 70
     1
102
RTVSPost2010Prop43
 90
        3
102
RTVSPost2010PropOp43
 70
     1
102
RTVSPost2010Prop44ColorIndex
 90
        5
102
RTVSPost2010Prop44ColorRGB
 90
      255
102
RTVSPost2010PropOp44
 70
     1
102
RTVSPost2010Prop45
280
     0
102
RTVSPost2010PropOp45
 70
     1
102
RTVSPost2010Prop46
 90
       50
102
RTVSPost2010PropOp46
 70
     1
102
RTVSPost2010Prop47
 90
       50
102
RTVSPost2010PropOp47
 70
     1
102
RTVSPost2010Prop48
 90
       50
102
RTVSPost2010PropOp48
 70
     1
102
RTVSPost2010Prop49
280
     0
102
RTVSPost2010PropOp49
 70
     1
102
RTVSPost2010Prop50
 90
       50
102
RTVSPost2010PropOp50
 70
     1
102
RTVSPost2010Prop51ColorIndex
 90
      256
102
RTVSPost2010Prop51ColorRGB
 90
-16777216
102
RTVSPost2010PropOp51
 70
     0
102
RTVSPost2010Prop52
140
1.0
102
RTVSPost2010PropOp52
 70
     0
102
RTVSPost2010Prop53
 90
        2
102
RTVSPost2010PropOp53
 70
     1
102
RTVSPost2010Prop54
  1
strokes_ogs.tif
102
RTVSPost2010PropOp54
 70
     1
102
RTVSPost2010Prop55
280
     0
102
RTVSPost2010PropOp55
 70
     1
102
RTVSPost2010Prop56
140
1.0
102
RTVSPost2010PropOp56
 70
     1
102
RTVSPost2010Prop57
140
1.0
102
RTVSPost2010PropOp57
 70
     1
  0
XRECORD
  5
3B1
102
{ACAD_REACTORS
330
3B0
102
}
330
3B0
100
AcDbXrecord
280
     1
102
RTVSPropertyOp0
 70
     1
102
RTVSPropertyOp1
 70
     1
102
RTVSPropertyOp2
 70
     1
102
RTVSPropertyOp3
 70
     1
102
RTVSPropertyOp4
 70
     1
102
RTVSPropertyOp5
 70
     1
102
RTVSPropertyOp6
 70
     1
102
RTVSPropertyOp7
 70
     1
102
RTVSPropertyOp8
 70
     1
102
RTVSPropertyOp9
 70
     1
102
RTVSPropertyOp10
 70
     1
102
RTVSPropertyOp11
 70
     1
102
RTVSPropertyOp12
 70
     1
102
RTVSPropertyOp13
 70
     1
102
RTVSPropertyOp14
 70
     1
102
RTVSPropertyOp15
 70
     1
102
RTVSPropertyOp16
 70
     1
102
RTVSPropertyOp17
 70
     1
102
RTVSPropertyOp18
 70
     1
102
RTVSPropertyOp19
 70
     1
102
RTVSPropertyOp20
 70
     1
102
RTVSPropertyOp21
 70
     1
102
RTVSPropertyOp22
 70
     1
102
RTVSPropertyOp23
 70
     1
102
RTVSPropertyOp24
 70
     1
102
RTVSPropertyOp25
 70
     1
102
RTVSPropertyOp26
 70
     1
102
RTVSPropertyOp27
 70
     1
102
RTVSPropertyOp28
 70
     1
102
RTVSPropertyOp29
 70
     1
102
RTVSPropertyOp30
 70
     1
102
RTVSPropertyOp31
 70
     1
102
RTVSPropertyOp32
 70
     1
102
RTVSPropertyOp33
 70
     1
102
RTVSPropertyOp34
 70
     1
102
RTVSPropertyOp35
 70
     1
102
RTVSPropertyOp36
 70
     1
102
RTVSPropertyOp37
 70
     1
102
RTVSPropertyOp38
 70
     1
102
RTVSPropertyOp39
 70
     1
102
RTVSPropertyOp40
 70
     1
102
RTVSPropertyOp41
 70
     1
102
RTVSPropertyOp42
 70
     1
102
RTVSPropertyOp43
 70
     1
102
RTVSPropertyOp44
 70
     1
102
RTVSPropertyOp45
 70
     1
102
RTVSPropertyOp46
 70
     1
102
RTVSPropertyOp47
 70
     1
102
RTVSPropertyOp48
 70
     1
102
RTVSPropertyOp49
 70
     1
102
RTVSPropertyOp50
 70
     1
102
RTVSPropertyOp51
 70
     0
102
RTVSPropertyOp52
 70
     0
102
RTVSPropertyOp53
 70
     1
102
RTVSPropertyOp54
 70
     1
102
RTVSPropertyOp55
 70
     1
102
RTVSPropertyOp56
 70
     1
102
RTVSPropertyOp57
 70
     1
102
RTVSPost2010Prop28
280
     0
102
RTVSPost2010PropOp28
 70
     1
102
RTVSPost2010Prop29
280
     1
102
RTVSPost2010PropOp29
 70
     1
102
RTVSPost2010Prop30
280
     1
102
RTVSPost2010PropOp30
 70
     1
102
RTVSPost2010Prop31
280
     0
102
RTVSPost2010PropOp31
 70
     1
102
RTVSPost2010Prop32
280
     0
102
RTVSPost2010PropOp32
 70
     1
102
RTVSPost2010Prop33
280
     0
102
RTVSPost2010PropOp33
 70
     1
102
RTVSPost2010Prop34
280
     0
102
RTVSPost2010PropOp34
 70
     1
102
RTVSPost2010Prop35
280
     0
102
RTVSPost2010PropOp35
 70
     1
102
RTVSPost2010Prop36
280
     0
102
RTVSPost2010PropOp36
 70
     1
102
RTVSPost2010Prop37
 90
       50
102
RTVSPost2010PropOp37
 70
     1
102
RTVSPost2010Prop38
140
0.0
102
RTVSPost2010PropOp38
 70
     1
102
RTVSPost2010Prop39
140
1.0
102
RTVSPost2010PropOp39
 70
     1
102
RTVSPost2010Prop40
 90
        0
102
RTVSPost2010PropOp40
 70
     1
102
RTVSPost2010Prop41ColorIndex
 90
       18
102
RTVSPost2010Prop41ColorRGB
 90
        0
102
RTVSPost2010PropOp41
 70
     1
102
RTVSPost2010Prop42
 90
       50
102
RTVSPost2010PropOp42
 70
     1
102
RTVSPost2010Prop43
 90
        3
102
RTVSPost2010PropOp43
 70
     1
102
RTVSPost2010Prop44ColorIndex
 90
        5
102
RTVSPost2010Prop44ColorRGB
 90
      255
102
RTVSPost2010PropOp44
 70
     1
102
RTVSPost2010Prop45
280
     0
102
RTVSPost2010PropOp45
 70
     1
102
RTVSPost2010Prop46
 90
       50
102
RTVSPost2010PropOp46
 70
     1
102
RTVSPost2010Prop47
 90
       50
102
RTVSPost2010PropOp47
 70
     1
102
RTVSPost2010Prop48
 90
       50
102
RTVSPost2010PropOp48
 70
     1
102
RTVSPost2010Prop49
280
     0
102
RTVSPost2010PropOp49
 70
     1
102
RTVSPost2010Prop50
 90
       50
102
RTVSPost2010PropOp50
 70
     1
102
RTVSPost2010Prop51ColorIndex
 90
      256
102
RTVSPost2010Prop51ColorRGB
 90
-16777216
102
RTVSPost2010PropOp51
 70
     0
102
RTVSPost2010Prop52
140
1.0
102
RTVSPost2010PropOp52
 70
     0
102
RTVSPost2010Prop53
 90
        2
102
RTVSPost2010PropOp53
 70
     1
102
RTVSPost2010Prop54
  1
strokes_ogs.tif
102
RTVSPost2010PropOp54
 70
     1
102
RTVSPost2010Prop55
280
     0
102
RTVSPost2010PropOp55
 70
     1
102
RTVSPost2010Prop56
140
1.0
102
RTVSPost2010PropOp56
 70
     1
102
RTVSPost2010Prop57
140
1.0
102
RTVSPost2010PropOp57
 70
     1
  0
XRECORD
  5
3AB
102
{ACAD_REACTORS
330
3AA
102
}
330
3AA
100
AcDbXrecord
280
     1
102
RTVSPropertyOp0
 70
     1
102
RTVSPropertyOp1
 70
     1
102
RTVSPropertyOp2
 70
     1
102
RTVSPropertyOp3
 70
     1
102
RTVSPropertyOp4
 70
     1
102
RTVSPropertyOp5
 70
     1
102
RTVSPropertyOp6
 70
     1
102
RTVSPropertyOp7
 70
     1
102
RTVSPropertyOp8
 70
     1
102
RTVSPropertyOp9
 70
     1
102
RTVSPropertyOp10
 70
     1
102
RTVSPropertyOp11
 70
     1
102
RTVSPropertyOp12
 70
     1
102
RTVSPropertyOp13
 70
     1
102
RTVSPropertyOp14
 70
     1
102
RTVSPropertyOp15
 70
     1
102
RTVSPropertyOp16
 70
     1
102
RTVSPropertyOp17
 70
     1
102
RTVSPropertyOp18
 70
     1
102
RTVSPropertyOp19
 70
     1
102
RTVSPropertyOp20
 70
     1
102
RTVSPropertyOp21
 70
     1
102
RTVSPropertyOp22
 70
     1
102
RTVSPropertyOp23
 70
     1
102
RTVSPropertyOp24
 70
     1
102
RTVSPropertyOp25
 70
     1
102
RTVSPropertyOp26
 70
     1
102
RTVSPropertyOp27
 70
     1
102
RTVSPropertyOp28
 70
     1
102
RTVSPropertyOp29
 70
     1
102
RTVSPropertyOp30
 70
     1
102
RTVSPropertyOp31
 70
     1
102
RTVSPropertyOp32
 70
     1
102
RTVSPropertyOp33
 70
     1
102
RTVSPropertyOp34
 70
     1
102
RTVSPropertyOp35
 70
     1
102
RTVSPropertyOp36
 70
     1
102
RTVSPropertyOp37
 70
     1
102
RTVSPropertyOp38
 70
     1
102
RTVSPropertyOp39
 70
     1
102
RTVSPropertyOp40
 70
     1
102
RTVSPropertyOp41
 70
     1
102
RTVSPropertyOp42
 70
     1
102
RTVSPropertyOp43
 70
     1
102
RTVSPropertyOp44
 70
     1
102
RTVSPropertyOp45
 70
     1
102
RTVSPropertyOp46
 70
     1
102
RTVSPropertyOp47
 70
     1
102
RTVSPropertyOp48
 70
     1
102
RTVSPropertyOp49
 70
     1
102
RTVSPropertyOp50
 70
     1
102
RTVSPropertyOp51
 70
     0
102
RTVSPropertyOp52
 70
     0
102
RTVSPropertyOp53
 70
     1
102
RTVSPropertyOp54
 70
     1
102
RTVSPropertyOp55
 70
     1
102
RTVSPropertyOp56
 70
     1
102
RTVSPropertyOp57
 70
     1
102
RTVSPost2010Prop28
280
     0
102
RTVSPost2010PropOp28
 70
     1
102
RTVSPost2010Prop29
280
     1
102
RTVSPost2010PropOp29
 70
     1
102
RTVSPost2010Prop30
280
     1
102
RTVSPost2010PropOp30
 70
     1
102
RTVSPost2010Prop31
280
     0
102
RTVSPost2010PropOp31
 70
     1
102
RTVSPost2010Prop32
280
     0
102
RTVSPost2010PropOp32
 70
     1
102
RTVSPost2010Prop33
280
     0
102
RTVSPost2010PropOp33
 70
     1
102
RTVSPost2010Prop34
280
     0
102
RTVSPost2010PropOp34
 70
     1
102
RTVSPost2010Prop35
280
     0
102
RTVSPost2010PropOp35
 70
     1
102
RTVSPost2010Prop36
280
     0
102
RTVSPost2010PropOp36
 70
     1
102
RTVSPost2010Prop37
 90
       50
102
RTVSPost2010PropOp37
 70
     1
102
RTVSPost2010Prop38
140
0.0
102
RTVSPost2010PropOp38
 70
     1
102
RTVSPost2010Prop39
140
1.0
102
RTVSPost2010PropOp39
 70
     1
102
RTVSPost2010Prop40
 90
        0
102
RTVSPost2010PropOp40
 70
     1
102
RTVSPost2010Prop41ColorIndex
 90
       18
102
RTVSPost2010Prop41ColorRGB
 90
        0
102
RTVSPost2010PropOp41
 70
     1
102
RTVSPost2010Prop42
 90
       50
102
RTVSPost2010PropOp42
 70
     1
102
RTVSPost2010Prop43
 90
        3
102
RTVSPost2010PropOp43
 70
     1
102
RTVSPost2010Prop44ColorIndex
 90
        5
102
RTVSPost2010Prop44ColorRGB
 90
      255
102
RTVSPost2010PropOp44
 70
     1
102
RTVSPost2010Prop45
280
     0
102
RTVSPost2010PropOp45
 70
     1
102
RTVSPost2010Prop46
 90
       50
102
RTVSPost2010PropOp46
 70
     1
102
RTVSPost2010Prop47
 90
       50
102
RTVSPost2010PropOp47
 70
     1
102
RTVSPost2010Prop48
 90
       50
102
RTVSPost2010PropOp48
 70
     1
102
RTVSPost2010Prop49
280
     0
102
RTVSPost2010PropOp49
 70
     1
102
RTVSPost2010Prop50
 90
       50
102
RTVSPost2010PropOp50
 70
     1
102
RTVSPost2010Prop51ColorIndex
 90
      256
102
RTVSPost2010Prop51ColorRGB
 90
-16777216
102
RTVSPost2010PropOp51
 70
     0
102
RTVSPost2010Prop52
140
1.0
102
RTVSPost2010PropOp52
 70
     0
102
RTVSPost2010Prop53
 90
        2
102
RTVSPost2010PropOp53
 70
     1
102
RTVSPost2010Prop54
  1
strokes_ogs.tif
102
RTVSPost2010PropOp54
 70
     1
102
RTVSPost2010Prop55
280
     0
102
RTVSPost2010PropOp55
 70
     1
102
RTVSPost2010Prop56
140
1.0
102
RTVSPost2010PropOp56
 70
     1
102
RTVSPost2010Prop57
140
1.0
102
RTVSPost2010PropOp57
 70
     1
  0
XRECORD
  5
3AD
102
{ACAD_REACTORS
330
3AC
102
}
330
3AC
100
AcDbXrecord
280
     1
102
RTVSPropertyOp0
 70
     1
102
RTVSPropertyOp1
 70
     1
102
RTVSPropertyOp2
 70
     1
102
RTVSPropertyOp3
 70
     1
102
RTVSPropertyOp4
 70
     1
102
RTVSPropertyOp5
 70
     1
102
RTVSPropertyOp6
 70
     1
102
RTVSPropertyOp7
 70
     1
102
RTVSPropertyOp8
 70
     1
102
RTVSPropertyOp9
 70
     1
102
RTVSPropertyOp10
 70
     1
102
RTVSPropertyOp11
 70
     1
102
RTVSPropertyOp12
 70
     1
102
RTVSPropertyOp13
 70
     1
102
RTVSPropertyOp14
 70
     1
102
RTVSPropertyOp15
 70
     1
102
RTVSPropertyOp16
 70
     1
102
RTVSPropertyOp17
 70
     1
102
RTVSPropertyOp18
 70
     1
102
RTVSPropertyOp19
 70
     1
102
RTVSPropertyOp20
 70
     1
102
RTVSPropertyOp21
 70
     1
102
RTVSPropertyOp22
 70
     1
102
RTVSPropertyOp23
 70
     1
102
RTVSPropertyOp24
 70
     1
102
RTVSPropertyOp25
 70
     1
102
RTVSPropertyOp26
 70
     1
102
RTVSPropertyOp27
 70
     1
102
RTVSPropertyOp28
 70
     1
102
RTVSPropertyOp29
 70
     1
102
RTVSPropertyOp30
 70
     1
102
RTVSPropertyOp31
 70
     1
102
RTVSPropertyOp32
 70
     1
102
RTVSPropertyOp33
 70
     1
102
RTVSPropertyOp34
 70
     1
102
RTVSPropertyOp35
 70
     1
102
RTVSPropertyOp36
 70
     1
102
RTVSPropertyOp37
 70
     1
102
RTVSPropertyOp38
 70
     1
102
RTVSPropertyOp39
 70
     1
102
RTVSPropertyOp40
 70
     1
102
RTVSPropertyOp41
 70
     1
102
RTVSPropertyOp42
 70
     1
102
RTVSPropertyOp43
 70
     1
102
RTVSPropertyOp44
 70
     1
102
RTVSPropertyOp45
 70
     1
102
RTVSPropertyOp46
 70
     1
102
RTVSPropertyOp47
 70
     1
102
RTVSPropertyOp48
 70
     1
102
RTVSPropertyOp49
 70
     1
102
RTVSPropertyOp50
 70
     1
102
RTVSPropertyOp51
 70
     0
102
RTVSPropertyOp52
 70
     0
102
RTVSPropertyOp53
 70
     1
102
RTVSPropertyOp54
 70
     1
102
RTVSPropertyOp55
 70
     1
102
RTVSPropertyOp56
 70
     1
102
RTVSPropertyOp57
 70
     1
102
RTVSPost2010Prop28
280
     0
102
RTVSPost2010PropOp28
 70
     1
102
RTVSPost2010Prop29
280
     1
102
RTVSPost2010PropOp29
 70
     1
102
RTVSPost2010Prop30
280
     1
102
RTVSPost2010PropOp30
 70
     1
102
RTVSPost2010Prop31
280
     0
102
RTVSPost2010PropOp31
 70
     1
102
RTVSPost2010Prop32
280
     0
102
RTVSPost2010PropOp32
 70
     1
102
RTVSPost2010Prop33
280
     0
102
RTVSPost2010PropOp33
 70
     1
102
RTVSPost2010Prop34
280
     0
102
RTVSPost2010PropOp34
 70
     1
102
RTVSPost2010Prop35
280
     0
102
RTVSPost2010PropOp35
 70
     1
102
RTVSPost2010Prop36
280
     0
102
RTVSPost2010PropOp36
 70
     1
102
RTVSPost2010Prop37
 90
       50
102
RTVSPost2010PropOp37
 70
     1
102
RTVSPost2010Prop38
140
0.0
102
RTVSPost2010PropOp38
 70
     1
102
RTVSPost2010Prop39
140
1.0
102
RTVSPost2010PropOp39
 70
     1
102
RTVSPost2010Prop40
 90
        0
102
RTVSPost2010PropOp40
 70
     1
102
RTVSPost2010Prop41ColorIndex
 90
       18
102
RTVSPost2010Prop41ColorRGB
 90
        0
102
RTVSPost2010PropOp41
 70
     1
102
RTVSPost2010Prop42
 90
       50
102
RTVSPost2010PropOp42
 70
     1
102
RTVSPost2010Prop43
 90
        3
102
RTVSPost2010PropOp43
 70
     1
102
RTVSPost2010Prop44ColorIndex
 90
        5
102
RTVSPost2010Prop44ColorRGB
 90
      255
102
RTVSPost2010PropOp44
 70
     1
102
RTVSPost2010Prop45
280
     0
102
RTVSPost2010PropOp45
 70
     1
102
RTVSPost2010Prop46
 90
       50
102
RTVSPost2010PropOp46
 70
     1
102
RTVSPost2010Prop47
 90
       50
102
RTVSPost2010PropOp47
 70
     1
102
RTVSPost2010Prop48
 90
       50
102
RTVSPost2010PropOp48
 70
     1
102
RTVSPost2010Prop49
280
     0
102
RTVSPost2010PropOp49
 70
     1
102
RTVSPost2010Prop50
 90
       50
102
RTVSPost2010PropOp50
 70
     1
102
RTVSPost2010Prop51ColorIndex
 90
      256
102
RTVSPost2010Prop51ColorRGB
 90
-16777216
102
RTVSPost2010PropOp51
 70
     0
102
RTVSPost2010Prop52
140
1.0
102
RTVSPost2010PropOp52
 70
     0
102
RTVSPost2010Prop53
 90
        2
102
RTVSPost2010PropOp53
 70
     1
102
RTVSPost2010Prop54
  1
strokes_ogs.tif
102
RTVSPost2010PropOp54
 70
     1
102
RTVSPost2010Prop55
280
     0
102
RTVSPost2010PropOp55
 70
     1
102
RTVSPost2010Prop56
140
1.0
102
RTVSPost2010PropOp56
 70
     1
102
RTVSPost2010Prop57
140
1.0
102
RTVSPost2010PropOp57
 70
     1
  0
XRECORD
  5
39D
102
{ACAD_REACTORS
330
39C
102
}
330
39C
100
AcDbXrecord
280
     1
102
RTVSPropertyOp0
 70
     1
102
RTVSPropertyOp1
 70
     1
102
RTVSPropertyOp2
 70
     1
102
RTVSPropertyOp3
 70
     1
102
RTVSPropertyOp4
 70
     1
102
RTVSPropertyOp5
 70
     1
102
RTVSPropertyOp6
 70
     1
102
RTVSPropertyOp7
 70
     1
102
RTVSPropertyOp8
 70
     1
102
RTVSPropertyOp9
 70
     1
102
RTVSPropertyOp10
 70
     1
102
RTVSPropertyOp11
 70
     1
102
RTVSPropertyOp12
 70
     1
102
RTVSPropertyOp13
 70
     1
102
RTVSPropertyOp14
 70
     1
102
RTVSPropertyOp15
 70
     1
102
RTVSPropertyOp16
 70
     1
102
RTVSPropertyOp17
 70
     1
102
RTVSPropertyOp18
 70
     1
102
RTVSPropertyOp19
 70
     1
102
RTVSPropertyOp20
 70
     1
102
RTVSPropertyOp21
 70
     1
102
RTVSPropertyOp22
 70
     1
102
RTVSPropertyOp23
 70
     1
102
RTVSPropertyOp24
 70
     1
102
RTVSPropertyOp25
 70
     1
102
RTVSPropertyOp26
 70
     1
102
RTVSPropertyOp27
 70
     1
102
RTVSPropertyOp28
 70
     1
102
RTVSPropertyOp29
 70
     1
102
RTVSPropertyOp30
 70
     1
102
RTVSPropertyOp31
 70
     1
102
RTVSPropertyOp32
 70
     1
102
RTVSPropertyOp33
 70
     1
102
RTVSPropertyOp34
 70
     1
102
RTVSPropertyOp35
 70
     1
102
RTVSPropertyOp36
 70
     1
102
RTVSPropertyOp37
 70
     1
102
RTVSPropertyOp38
 70
     1
102
RTVSPropertyOp39
 70
     1
102
RTVSPropertyOp40
 70
     1
102
RTVSPropertyOp41
 70
     1
102
RTVSPropertyOp42
 70
     1
102
RTVSPropertyOp43
 70
     1
102
RTVSPropertyOp44
 70
     1
102
RTVSPropertyOp45
 70
     1
102
RTVSPropertyOp46
 70
     1
102
RTVSPropertyOp47
 70
     1
102
RTVSPropertyOp48
 70
     1
102
RTVSPropertyOp49
 70
     1
102
RTVSPropertyOp50
 70
     1
102
RTVSPropertyOp51
 70
     0
102
RTVSPropertyOp52
 70
     0
102
RTVSPropertyOp53
 70
     1
102
RTVSPropertyOp54
 70
     1
102
RTVSPropertyOp55
 70
     1
102
RTVSPropertyOp56
 70
     1
102
RTVSPropertyOp57
 70
     1
102
RTVSPost2010Prop28
280
     0
102
RTVSPost2010PropOp28
 70
     1
102
RTVSPost2010Prop29
280
     1
102
RTVSPost2010PropOp29
 70
     1
102
RTVSPost2010Prop30
280
     1
102
RTVSPost2010PropOp30
 70
     1
102
RTVSPost2010Prop31
280
     0
102
RTVSPost2010PropOp31
 70
     1
102
RTVSPost2010Prop32
280
     0
102
RTVSPost2010PropOp32
 70
     1
102
RTVSPost2010Prop33
280
     0
102
RTVSPost2010PropOp33
 70
     1
102
RTVSPost2010Prop34
280
     0
102
RTVSPost2010PropOp34
 70
     1
102
RTVSPost2010Prop35
280
     0
102
RTVSPost2010PropOp35
 70
     1
102
RTVSPost2010Prop36
280
     0
102
RTVSPost2010PropOp36
 70
     1
102
RTVSPost2010Prop37
 90
       50
102
RTVSPost2010PropOp37
 70
     1
102
RTVSPost2010Prop38
140
0.0
102
RTVSPost2010PropOp38
 70
     1
102
RTVSPost2010Prop39
140
1.0
102
RTVSPost2010PropOp39
 70
     1
102
RTVSPost2010Prop40
 90
        0
102
RTVSPost2010PropOp40
 70
     1
102
RTVSPost2010Prop41ColorIndex
 90
       18
102
RTVSPost2010Prop41ColorRGB
 90
        0
102
RTVSPost2010PropOp41
 70
     1
102
RTVSPost2010Prop42
 90
       50
102
RTVSPost2010PropOp42
 70
     1
102
RTVSPost2010Prop43
 90
        3
102
RTVSPost2010PropOp43
 70
     1
102
RTVSPost2010Prop44ColorIndex
 90
        5
102
RTVSPost2010Prop44ColorRGB
 90
      255
102
RTVSPost2010PropOp44
 70
     1
102
RTVSPost2010Prop45
280
     0
102
RTVSPost2010PropOp45
 70
     1
102
RTVSPost2010Prop46
 90
       50
102
RTVSPost2010PropOp46
 70
     1
102
RTVSPost2010Prop47
 90
       50
102
RTVSPost2010PropOp47
 70
     1
102
RTVSPost2010Prop48
 90
       50
102
RTVSPost2010PropOp48
 70
     1
102
RTVSPost2010Prop49
280
     0
102
RTVSPost2010PropOp49
 70
     1
102
RTVSPost2010Prop50
 90
       50
102
RTVSPost2010PropOp50
 70
     1
102
RTVSPost2010Prop51ColorIndex
 90
      256
102
RTVSPost2010Prop51ColorRGB
 90
-16777216
102
RTVSPost2010PropOp51
 70
     0
102
RTVSPost2010Prop52
140
1.0
102
RTVSPost2010PropOp52
 70
     0
102
RTVSPost2010Prop53
 90
        2
102
RTVSPost2010PropOp53
 70
     1
102
RTVSPost2010Prop54
  1
strokes_ogs.tif
102
RTVSPost2010PropOp54
 70
     1
102
RTVSPost2010Prop55
280
     0
102
RTVSPost2010PropOp55
 70
     1
102
RTVSPost2010Prop56
140
1.0
102
RTVSPost2010PropOp56
 70
     1
102
RTVSPost2010Prop57
140
1.0
102
RTVSPost2010PropOp57
 70
     1
  0
XRECORD
  5
38F
102
{ACAD_REACTORS
330
38E
102
}
330
38E
100
AcDbXrecord
280
     1
102
RTVSPropertyOp0
 70
     1
102
RTVSPropertyOp1
 70
     1
102
RTVSPropertyOp2
 70
     1
102
RTVSPropertyOp3
 70
     1
102
RTVSPropertyOp4
 70
     1
102
RTVSPropertyOp5
 70
     1
102
RTVSPropertyOp6
 70
     1
102
RTVSPropertyOp7
 70
     1
102
RTVSPropertyOp8
 70
     1
102
RTVSPropertyOp9
 70
     1
102
RTVSPropertyOp10
 70
     1
102
RTVSPropertyOp11
 70
     1
102
RTVSPropertyOp12
 70
     1
102
RTVSPropertyOp13
 70
     1
102
RTVSPropertyOp14
 70
     1
102
RTVSPropertyOp15
 70
     1
102
RTVSPropertyOp16
 70
     1
102
RTVSPropertyOp17
 70
     1
102
RTVSPropertyOp18
 70
     1
102
RTVSPropertyOp19
 70
     1
102
RTVSPropertyOp20
 70
     1
102
RTVSPropertyOp21
 70
     1
102
RTVSPropertyOp22
 70
     1
102
RTVSPropertyOp23
 70
     1
102
RTVSPropertyOp24
 70
     1
102
RTVSPropertyOp25
 70
     1
102
RTVSPropertyOp26
 70
     1
102
RTVSPropertyOp27
 70
     1
102
RTVSPropertyOp28
 70
     1
102
RTVSPropertyOp29
 70
     1
102
RTVSPropertyOp30
 70
     1
102
RTVSPropertyOp31
 70
     1
102
RTVSPropertyOp32
 70
     1
102
RTVSPropertyOp33
 70
     1
102
RTVSPropertyOp34
 70
     1
102
RTVSPropertyOp35
 70
     1
102
RTVSPropertyOp36
 70
     1
102
RTVSPropertyOp37
 70
     1
102
RTVSPropertyOp38
 70
     1
102
RTVSPropertyOp39
 70
     1
102
RTVSPropertyOp40
 70
     1
102
RTVSPropertyOp41
 70
     1
102
RTVSPropertyOp42
 70
     1
102
RTVSPropertyOp43
 70
     1
102
RTVSPropertyOp44
 70
     1
102
RTVSPropertyOp45
 70
     1
102
RTVSPropertyOp46
 70
     1
102
RTVSPropertyOp47
 70
     1
102
RTVSPropertyOp48
 70
     1
102
RTVSPropertyOp49
 70
     1
102
RTVSPropertyOp50
 70
     1
102
RTVSPropertyOp51
 70
     0
102
RTVSPropertyOp52
 70
     0
102
RTVSPropertyOp53
 70
     1
102
RTVSPropertyOp54
 70
     1
102
RTVSPropertyOp55
 70
     1
102
RTVSPropertyOp56
 70
     1
102
RTVSPropertyOp57
 70
     1
102
RTVSPost2010Prop28
280
     0
102
RTVSPost2010PropOp28
 70
     1
102
RTVSPost2010Prop29
280
     1
102
RTVSPost2010PropOp29
 70
     1
102
RTVSPost2010Prop30
280
     1
102
RTVSPost2010PropOp30
 70
     1
102
RTVSPost2010Prop31
280
     0
102
RTVSPost2010PropOp31
 70
     1
102
RTVSPost2010Prop32
280
     0
102
RTVSPost2010PropOp32
 70
     1
102
RTVSPost2010Prop33
280
     0
102
RTVSPost2010PropOp33
 70
     1
102
RTVSPost2010Prop34
280
     0
102
RTVSPost2010PropOp34
 70
     1
102
RTVSPost2010Prop35
280
     0
102
RTVSPost2010PropOp35
 70
     1
102
RTVSPost2010Prop36
280
     0
102
RTVSPost2010PropOp36
 70
     1
102
RTVSPost2010Prop37
 90
       50
102
RTVSPost2010PropOp37
 70
     1
102
RTVSPost2010Prop38
140
0.0
102
RTVSPost2010PropOp38
 70
     1
102
RTVSPost2010Prop39
140
1.0
102
RTVSPost2010PropOp39
 70
     1
102
RTVSPost2010Prop40
 90
        0
102
RTVSPost2010PropOp40
 70
     1
102
RTVSPost2010Prop41ColorIndex
 90
       18
102
RTVSPost2010Prop41ColorRGB
 90
        0
102
RTVSPost2010PropOp41
 70
     1
102
RTVSPost2010Prop42
 90
       50
102
RTVSPost2010PropOp42
 70
     1
102
RTVSPost2010Prop43
 90
        3
102
RTVSPost2010PropOp43
 70
     1
102
RTVSPost2010Prop44ColorIndex
 90
        5
102
RTVSPost2010Prop44ColorRGB
 90
      255
102
RTVSPost2010PropOp44
 70
     1
102
RTVSPost2010Prop45
280
     0
102
RTVSPost2010PropOp45
 70
     1
102
RTVSPost2010Prop46
 90
       50
102
RTVSPost2010PropOp46
 70
     1
102
RTVSPost2010Prop47
 90
       50
102
RTVSPost2010PropOp47
 70
     1
102
RTVSPost2010Prop48
 90
       50
102
RTVSPost2010PropOp48
 70
     1
102
RTVSPost2010Prop49
280
     0
102
RTVSPost2010PropOp49
 70
     1
102
RTVSPost2010Prop50
 90
       50
102
RTVSPost2010PropOp50
 70
     1
102
RTVSPost2010Prop51ColorIndex
 90
      256
102
RTVSPost2010Prop51ColorRGB
 90
-16777216
102
RTVSPost2010PropOp51
 70
     0
102
RTVSPost2010Prop52
140
1.0
102
RTVSPost2010PropOp52
 70
     0
102
RTVSPost2010Prop53
 90
        2
102
RTVSPost2010PropOp53
 70
     1
102
RTVSPost2010Prop54
  1
strokes_ogs.tif
102
RTVSPost2010PropOp54
 70
     1
102
RTVSPost2010Prop55
280
     0
102
RTVSPost2010PropOp55
 70
     1
102
RTVSPost2010Prop56
140
1.0
102
RTVSPost2010PropOp56
 70
     1
102
RTVSPost2010Prop57
140
1.0
102
RTVSPost2010PropOp57
 70
     1
  0
XRECORD
  5
3AF
102
{ACAD_REACTORS
330
3AE
102
}
330
3AE
100
AcDbXrecord
280
     1
102
RTVSPropertyOp0
 70
     1
102
RTVSPropertyOp1
 70
     1
102
RTVSPropertyOp2
 70
     1
102
RTVSPropertyOp3
 70
     1
102
RTVSPropertyOp4
 70
     1
102
RTVSPropertyOp5
 70
     1
102
RTVSPropertyOp6
 70
     1
102
RTVSPropertyOp7
 70
     1
102
RTVSPropertyOp8
 70
     1
102
RTVSPropertyOp9
 70
     1
102
RTVSPropertyOp10
 70
     1
102
RTVSPropertyOp11
 70
     1
102
RTVSPropertyOp12
 70
     1
102
RTVSPropertyOp13
 70
     1
102
RTVSPropertyOp14
 70
     1
102
RTVSPropertyOp15
 70
     1
102
RTVSPropertyOp16
 70
     1
102
RTVSPropertyOp17
 70
     1
102
RTVSPropertyOp18
 70
     1
102
RTVSPropertyOp19
 70
     1
102
RTVSPropertyOp20
 70
     1
102
RTVSPropertyOp21
 70
     1
102
RTVSPropertyOp22
 70
     1
102
RTVSPropertyOp23
 70
     1
102
RTVSPropertyOp24
 70
     1
102
RTVSPropertyOp25
 70
     1
102
RTVSPropertyOp26
 70
     1
102
RTVSPropertyOp27
 70
     1
102
RTVSPropertyOp28
 70
     1
102
RTVSPropertyOp29
 70
     1
102
RTVSPropertyOp30
 70
     1
102
RTVSPropertyOp31
 70
     1
102
RTVSPropertyOp32
 70
     1
102
RTVSPropertyOp33
 70
     1
102
RTVSPropertyOp34
 70
     1
102
RTVSPropertyOp35
 70
     1
102
RTVSPropertyOp36
 70
     1
102
RTVSPropertyOp37
 70
     1
102
RTVSPropertyOp38
 70
     1
102
RTVSPropertyOp39
 70
     1
102
RTVSPropertyOp40
 70
     1
102
RTVSPropertyOp41
 70
     1
102
RTVSPropertyOp42
 70
     1
102
RTVSPropertyOp43
 70
     1
102
RTVSPropertyOp44
 70
     1
102
RTVSPropertyOp45
 70
     1
102
RTVSPropertyOp46
 70
     1
102
RTVSPropertyOp47
 70
     1
102
RTVSPropertyOp48
 70
     1
102
RTVSPropertyOp49
 70
     1
102
RTVSPropertyOp50
 70
     1
102
RTVSPropertyOp51
 70
     0
102
RTVSPropertyOp52
 70
     0
102
RTVSPropertyOp53
 70
     1
102
RTVSPropertyOp54
 70
     1
102
RTVSPropertyOp55
 70
     1
102
RTVSPropertyOp56
 70
     1
102
RTVSPropertyOp57
 70
     1
102
RTVSPost2010Prop28
280
     0
102
RTVSPost2010PropOp28
 70
     1
102
RTVSPost2010Prop29
280
     1
102
RTVSPost2010PropOp29
 70
     1
102
RTVSPost2010Prop30
280
     1
102
RTVSPost2010PropOp30
 70
     1
102
RTVSPost2010Prop31
280
     0
102
RTVSPost2010PropOp31
 70
     1
102
RTVSPost2010Prop32
280
     0
102
RTVSPost2010PropOp32
 70
     1
102
RTVSPost2010Prop33
280
     0
102
RTVSPost2010PropOp33
 70
     1
102
RTVSPost2010Prop34
280
     0
102
RTVSPost2010PropOp34
 70
     1
102
RTVSPost2010Prop35
280
     0
102
RTVSPost2010PropOp35
 70
     1
102
RTVSPost2010Prop36
280
     0
102
RTVSPost2010PropOp36
 70
     1
102
RTVSPost2010Prop37
 90
       50
102
RTVSPost2010PropOp37
 70
     1
102
RTVSPost2010Prop38
140
0.0
102
RTVSPost2010PropOp38
 70
     1
102
RTVSPost2010Prop39
140
1.0
102
RTVSPost2010PropOp39
 70
     1
102
RTVSPost2010Prop40
 90
        0
102
RTVSPost2010PropOp40
 70
     1
102
RTVSPost2010Prop41ColorIndex
 90
       18
102
RTVSPost2010Prop41ColorRGB
 90
        0
102
RTVSPost2010PropOp41
 70
     1
102
RTVSPost2010Prop42
 90
       50
102
RTVSPost2010PropOp42
 70
     1
102
RTVSPost2010Prop43
 90
        3
102
RTVSPost2010PropOp43
 70
     1
102
RTVSPost2010Prop44ColorIndex
 90
        5
102
RTVSPost2010Prop44ColorRGB
 90
      255
102
RTVSPost2010PropOp44
 70
     1
102
RTVSPost2010Prop45
280
     0
102
RTVSPost2010PropOp45
 70
     1
102
RTVSPost2010Prop46
 90
       50
102
RTVSPost2010PropOp46
 70
     1
102
RTVSPost2010Prop47
 90
       50
102
RTVSPost2010PropOp47
 70
     1
102
RTVSPost2010Prop48
 90
       50
102
RTVSPost2010PropOp48
 70
     1
102
RTVSPost2010Prop49
280
     0
102
RTVSPost2010PropOp49
 70
     1
102
RTVSPost2010Prop50
 90
       50
102
RTVSPost2010PropOp50
 70
     1
102
RTVSPost2010Prop51ColorIndex
 90
      256
102
RTVSPost2010Prop51ColorRGB
 90
-16777216
102
RTVSPost2010PropOp51
 70
     0
102
RTVSPost2010Prop52
140
1.0
102
RTVSPost2010PropOp52
 70
     0
102
RTVSPost2010Prop53
 90
        2
102
RTVSPost2010PropOp53
 70
     1
102
RTVSPost2010Prop54
  1
strokes_ogs.tif
102
RTVSPost2010PropOp54
 70
     1
102
RTVSPost2010Prop55
280
     0
102
RTVSPost2010PropOp55
 70
     1
102
RTVSPost2010Prop56
140
1.0
102
RTVSPost2010PropOp56
 70
     1
102
RTVSPost2010Prop57
140
1.0
102
RTVSPost2010PropOp57
 70
     1
  0
ENDSEC
  0
EOF
