  0
SECTION
  2
HEADER
  9
$ACADVER
  1
AC1018
  9
$ACADMAINTVER
 70
     0
  9
$DWGCODEPAGE
  3
ANSI_932
  9
$TITLE
  1
13FP-Uzx
  9
$SUBJECT
  1
旗ポール
  9
$AUTHOR
  1
修正tokoro
  9
$KEYWORDS
  1
FP130UZX
  9
$COMMENTS
  1
 
  9
$LASTSAVEDBY
  1
修正tokoro
  9
$CUSTOMPROPERTYTAG
  1
 
  9
$CUSTOMPROPERTY
  1
 
  9
$CUSTOMPROPERTYTAG
  1
 
  9
$CUSTOMPROPERTY
  1
 
  9
$CUSTOMPROPERTYTAG
  1
 
  9
$CUSTOMPROPERTY
  1
 
  9
$CUSTOMPROPERTYTAG
  1
 
  9
$CUSTOMPROPERTY
  1
 
  9
$CUSTOMPROPERTYTAG
  1
 
  9
$CUSTOMPROPERTY
  1
 
  9
$CUSTOMPROPERTYTAG
  1
 
  9
$CUSTOMPROPERTY
  1
 
  9
$CUSTOMPROPERTYTAG
  1
 
  9
$CUSTOMPROPERTY
  1
 
  9
$CUSTOMPROPERTYTAG
  1
 
  9
$CUSTOMPROPERTY
  1
 
  9
$CUSTOMPROPERTYTAG
  1
 
  9
$CUSTOMPROPERTY
  1
 
  9
$CUSTOMPROPERTYTAG
  1
 
  9
$CUSTOMPROPERTY
  1
 
  9
$INSBASE
 10
0.0
 20
0.0
 30
0.0
  9
$EXTMIN
 10
0.0
 20
0.0
 30
0.0
  9
$EXTMAX
 10
420.0
 20
297.0
 30
0.0
  9
$LIMMIN
 10
0.0
 20
0.0
  9
$LIMMAX
 10
420.0
 20
297.0
  9
$ORTHOMODE
 70
     0
  9
$REGENMODE
 70
     1
  9
$FILLMODE
 70
     1
  9
$QTEXTMODE
 70
     0
  9
$MIRRTEXT
 70
     1
  9
$LTSCALE
 40
8.4
  9
$ATTMODE
 70
     1
  9
$TEXTSIZE
 40
0.2
  9
$TRACEWID
 40
0.05
  9
$TEXTSTYLE
  7
STANDARD
  9
$CLAYER
  8
0
  9
$CELTYPE
  6
BYBLOCK
  9
$CECOLOR
 62
   256
  9
$CELTSCALE
 40
1.0
  9
$DISPSILH
 70
     0
  9
$DIMSCALE
 40
1.0
  9
$DIMASZ
 40
0.18
  9
$DIMEXO
 40
0.0625
  9
$DIMDLI
 40
0.38
  9
$DIMRND
 40
0.0
  9
$DIMDLE
 40
0.0
  9
$DIMEXE
 40
0.18
  9
$DIMTP
 40
0.0
  9
$DIMTM
 40
0.0
  9
$DIMTXT
 40
0.18
  9
$DIMCEN
 40
0.09
  9
$DIMTSZ
 40
0.0
  9
$DIMTOL
 70
     0
  9
$DIMLIM
 70
     0
  9
$DIMTIH
 70
     1
  9
$DIMTOH
 70
     1
  9
$DIMSE1
 70
     0
  9
$DIMSE2
 70
     0
  9
$DIMTAD
 70
     0
  9
$DIMZIN
 70
     0
  9
$DIMBLK
  1

  9
$DIMASO
 70
     1
  9
$DIMSHO
 70
     1
  9
$DIMPOST
  1

  9
$DIMAPOST
  1

  9
$DIMALT
 70
     0
  9
$DIMALTD
 70
     2
  9
$DIMALTF
 40
25.4
  9
$DIMLFAC
 40
1.0
  9
$DIMTOFL
 70
     0
  9
$DIMTVP
 40
0.0
  9
$DIMTIX
 70
     0
  9
$DIMSOXD
 70
     0
  9
$DIMSAH
 70
     0
  9
$DIMBLK1
  1

  9
$DIMBLK2
  1

  9
$DIMSTYLE
  2
STANDARD
  9
$DIMCLRD
 70
     0
  9
$DIMCLRE
 70
     0
  9
$DIMCLRT
 70
     0
  9
$DIMTFAC
 40
1.0
  9
$DIMGAP
 40
0.09
  9
$DIMJUST
 70
     0
  9
$DIMSD1
 70
     0
  9
$DIMSD2
 70
     0
  9
$DIMTOLJ
 70
     1
  9
$DIMTZIN
 70
     0
  9
$DIMALTZ
 70
     0
  9
$DIMALTTZ
 70
     0
  9
$DIMUPT
 70
     0
  9
$DIMDEC
 70
     4
  9
$DIMTDEC
 70
     4
  9
$DIMALTU
 70
     2
  9
$DIMALTTD
 70
     2
  9
$DIMTXSTY
  7
STANDARD
  9
$DIMAUNIT
 70
     0
  9
$DIMADEC
 70
     0
  9
$DIMALTRND
 40
0.0
  9
$DIMAZIN
 70
     0
  9
$DIMDSEP
 70
    46
  9
$DIMATFIT
 70
     3
  9
$DIMFRAC
 70
     0
  9
$DIMLDRBLK
  1

  9
$DIMLUNIT
 70
     2
  9
$DIMLWD
 70
    -2
  9
$DIMLWE
 70
    -2
  9
$DIMTMOVE
 70
     0
  9
$LUNITS
 70
     2
  9
$LUPREC
 70
     4
  9
$SKETCHINC
 40
0.1
  9
$FILLETRAD
 40
0.5
  9
$AUNITS
 70
     0
  9
$AUPREC
 70
     0
  9
$MENU
  1
.
  9
$ELEVATION
 40
0.0
  9
$PELEVATION
 40
0.0
  9
$THICKNESS
 40
0.0
  9
$LIMCHECK
 70
     0
  9
$CHAMFERA
 40
0.0
  9
$CHAMFERB
 40
0.0
  9
$CHAMFERC
 40
0.0
  9
$CHAMFERD
 40
0.0
  9
$SKPOLY
 70
     0
  9
$TDCREATE
 40
2447893.375
  9
$TDUCREATE
 40
0.0
  9
$TDUPDATE
 40
2460013.76139706
  9
$TDUUPDATE
 40
2460013.38639706
  9
$TDINDWG
 40
0.0
  9
$TDUSRTIMER
 40
0.0
  9
$USRTIMER
 70
     1
  9
$ANGBASE
 50
0.0
  9
$ANGDIR
 70
     0
  9
$PDMODE
 70
     0
  9
$PDSIZE
 40
0.0
  9
$PLINEWID
 40
0.0
  9
$SPLFRAME
 70
     0
  9
$SPLINETYPE
 70
     6
  9
$SPLINESEGS
 70
     8
  9
$HANDSEED
  5
3EA
  9
$SURFTAB1
 70
     6
  9
$SURFTAB2
 70
     6
  9
$SURFTYPE
 70
     6
  9
$SURFU
 70
     6
  9
$SURFV
 70
     6
  9
$UCSBASE
  2

  9
$UCSNAME
  2

  9
$UCSORG
 10
0.0
 20
0.0
 30
0.0
  9
$UCSXDIR
 10
1.0
 20
0.0
 30
0.0
  9
$UCSYDIR
 10
0.0
 20
1.0
 30
0.0
  9
$UCSORTHOREF
  2

  9
$UCSORTHOVIEW
 70
     0
  9
$UCSORGTOP
 10
0.0
 20
0.0
 30
0.0
  9
$UCSORGBOTTOM
 10
0.0
 20
0.0
 30
0.0
  9
$UCSORGLEFT
 10
0.0
 20
0.0
 30
0.0
  9
$UCSORGRIGHT
 10
0.0
 20
0.0
 30
0.0
  9
$UCSORGFRONT
 10
0.0
 20
0.0
 30
0.0
  9
$UCSORGBACK
 10
0.0
 20
0.0
 30
0.0
  9
$PUCSBASE
  2

  9
$PUCSNAME
  2

  9
$PUCSORG
 10
0.0
 20
0.0
 30
0.0
  9
$PUCSXDIR
 10
1.0
 20
0.0
 30
0.0
  9
$PUCSYDIR
 10
0.0
 20
1.0
 30
0.0
  9
$PUCSORTHOREF
  2

  9
$PUCSORTHOVIEW
 70
     0
  9
$PUCSORGTOP
 10
0.0
 20
0.0
 30
0.0
  9
$PUCSORGBOTTOM
 10
0.0
 20
0.0
 30
0.0
  9
$PUCSORGLEFT
 10
0.0
 20
0.0
 30
0.0
  9
$PUCSORGRIGHT
 10
0.0
 20
0.0
 30
0.0
  9
$PUCSORGFRONT
 10
0.0
 20
0.0
 30
0.0
  9
$PUCSORGBACK
 10
0.0
 20
0.0
 30
0.0
  9
$USERI1
 70
     0
  9
$USERI2
 70
     0
  9
$USERI3
 70
     0
  9
$USERI4
 70
     0
  9
$USERI5
 70
     0
  9
$USERR1
 40
0.0
  9
$USERR2
 40
0.0
  9
$USERR3
 40
0.0
  9
$USERR4
 40
0.0
  9
$USERR5
 40
0.0
  9
$WORLDVIEW
 70
     1
  9
$SHADEDGE
 70
     3
  9
$SHADEDIF
 70
    70
  9
$TILEMODE
 70
     1
  9
$MAXACTVP
 70
    64
  9
$PINSBASE
 10
0.0
 20
0.0
 30
0.0
  9
$PLIMCHECK
 70
     0
  9
$PEXTMIN
 10
1.000000000000000E+20
 20
1.000000000000000E+20
 30
1.000000000000000E+20
  9
$PEXTMAX
 10
-1.000000000000000E+20
 20
-1.000000000000000E+20
 30
-1.000000000000000E+20
  9
$PLIMMIN
 10
0.0
 20
0.0
  9
$PLIMMAX
 10
12.0
 20
9.0
  9
$UNITMODE
 70
     0
  9
$VISRETAIN
 70
     1
  9
$PLINEGEN
 70
     0
  9
$PSLTSCALE
 70
     1
  9
$TREEDEPTH
 70
  3020
  9
$CMLSTYLE
  2

  9
$CMLJUST
 70
     0
  9
$CMLSCALE
 40
1.0
  9
$PROXYGRAPHICS
 70
     1
  9
$MEASUREMENT
 70
     0
  9
$CELWEIGHT
370
    -1
  9
$ENDCAPS
280
     0
  9
$JOINSTYLE
280
     0
  9
$LWDISPLAY
290
     0
  9
$INSUNITS
 70
     0
  9
$HYPERLINKBASE
  1

  9
$STYLESHEET
  1

  9
$XEDIT
290
     1
  9
$CEPSNTYPE
380
     0
  9
$PSTYLEMODE
290
     1
  9
$FINGERPRINTGUID
  2
{88C199B2-A037-4E8D-914E-495ED86D3178}
  9
$VERSIONGUID
  2
{FAEB1C32-E019-11D5-929B-00C0DF256EC4}
  9
$EXTNAMES
290
     1
  9
$PSVPSCALE
 40
0.0
  9
$OLESTARTUP
290
     0
  9
$SORTENTS
280
   127
  9
$INDEXCTL
280
     0
  9
$HIDETEXT
280
     1
  9
$XCLIPFRAME
290
     0
  9
$HALOGAP
280
     0
  9
$OBSCOLOR
 70
   257
  9
$OBSLTYPE
280
     0
  9
$INTERSECTIONDISPLAY
280
     0
  9
$INTERSECTIONCOLOR
 70
   257
  9
$DIMASSOC
280
     2
  9
$PROJECTNAME
  1

  0
ENDSEC
  0
SECTION
  2
CLASSES
  0
CLASS
  1
SCALE
  2
AcDbScale
  3
ObjectDBX Classes
 90
     1153
 91
        4
280
     0
281
     0
  0
CLASS
  1
VISUALSTYLE
  2
AcDbVisualStyle
  3
ObjectDBX Classes
 90
     4095
 91
        4
280
     0
281
     0
  0
CLASS
  1
MATERIAL
  2
AcDbMaterial
  3
ObjectDBX Classes
 90
     1153
 91
        4
280
     0
281
     0
  0
CLASS
  1
ACDBDICTIONARYWDFLT
  2
AcDbDictionaryWithDefault
  3
ObjectDBX Classes
 90
        0
 91
        4
280
     0
281
     0
  0
CLASS
  1
DICTIONARYVAR
  2
AcDbDictionaryVar
  3
ObjectDBX Classes
 90
        0
 91
        4
280
     0
281
     0
  0
ENDSEC
  0
SECTION
  2
TABLES
  0
TABLE
  2
VPORT
  5
8
102
{ACAD_XDICTIONARY
360
3AB
102
}
330
0
100
AcDbSymbolTable
 70
     1
  0
VPORT
  5
366
330
8
100
AcDbSymbolTableRecord
100
AcDbViewportTableRecord
  2
*ACTIVE
 70
     0
 10
0.0
 20
0.0
 11
1.0
 21
1.0
 12
210.0
 22
148.5
 13
0.0
 23
0.0
 14
1.0
 24
1.0
 15
0.0
 25
0.0
 16
0.0
 26
0.0
 36
1.0
 17
0.0
 27
0.0
 37
0.0
 40
420.0
 41
1.4787878787879
 42
50.0
 43
0.0
 44
0.0
 50
0.0
 51
0.0
 71
     0
 72
   100
 73
     1
 74
     1
 75
     0
 76
     0
 77
     0
 78
     0
281
     0
 65
     1
110
0.0
120
0.0
130
0.0
111
1.0
121
0.0
131
0.0
112
0.0
122
1.0
132
0.0
 79
     0
146
0.0
  0
ENDTAB
  0
TABLE
  2
LTYPE
  5
5
330
0
100
AcDbSymbolTable
 70
    25
  0
LTYPE
  5
12
330
5
100
AcDbSymbolTableRecord
100
AcDbLinetypeTableRecord
  2
BYBLOCK
 70
     0
  3

 72
    65
 73
     0
 40
0.0
  0
LTYPE
  5
13
330
5
100
AcDbSymbolTableRecord
100
AcDbLinetypeTableRecord
  2
BYLAYER
 70
     0
  3

 72
    65
 73
     0
 40
0.0
  0
LTYPE
  5
14
330
5
100
AcDbSymbolTableRecord
100
AcDbLinetypeTableRecord
  2
CONTINUOUS
 70
     0
  3
Solid line
 72
    65
 73
     0
 40
0.0
  0
LTYPE
  5
20
330
5
100
AcDbSymbolTableRecord
100
AcDbLinetypeTableRecord
  2
BORDER
 70
     0
  3
__ __ . __ __ . __ __ . __ __ . __ __ . __ __ .
 72
    65
 73
     6
 40
1.75
 49
0.5
 74
     0
 49
-0.25
 74
     0
 49
0.5
 74
     0
 49
-0.25
 74
     0
 49
0.0
 74
     0
 49
-0.25
 74
     0
  0
LTYPE
  5
21
330
5
100
AcDbSymbolTableRecord
100
AcDbLinetypeTableRecord
  2
BORDER2
 70
     0
  3
__.__.__.__.__.__.__.__.__.__.__.__.__.__.__.__
 72
    65
 73
     6
 40
0.875
 49
0.25
 74
     0
 49
-0.125
 74
     0
 49
0.25
 74
     0
 49
-0.125
 74
     0
 49
0.0
 74
     0
 49
-0.125
 74
     0
  0
LTYPE
  5
22
330
5
100
AcDbSymbolTableRecord
100
AcDbLinetypeTableRecord
  2
BORDERX2
 70
     0
  3
____  ____  .  ____  ____  .  ____  ____  .  __
 72
    65
 73
     6
 40
3.5
 49
1.0
 74
     0
 49
-0.5
 74
     0
 49
1.0
 74
     0
 49
-0.5
 74
     0
 49
0.0
 74
     0
 49
-0.5
 74
     0
  0
LTYPE
  5
23
330
5
100
AcDbSymbolTableRecord
100
AcDbLinetypeTableRecord
  2
CENTER
 70
     0
  3
____ _ ____ _ ____ _ ____ _ ____ _ ____ _ ____ 
 72
    65
 73
     4
 40
2.0
 49
1.25
 74
     0
 49
-0.25
 74
     0
 49
0.25
 74
     0
 49
-0.25
 74
     0
  0
LTYPE
  5
24
330
5
100
AcDbSymbolTableRecord
100
AcDbLinetypeTableRecord
  2
CENTER2
 70
     0
  3
___ _ ___ _ ___ _ ___ _ ___ _ ___ _ ___ _ ___ _
 72
    65
 73
     4
 40
1.125
 49
0.75
 74
     0
 49
-0.125
 74
     0
 49
0.125
 74
     0
 49
-0.125
 74
     0
  0
LTYPE
  5
25
330
5
100
AcDbSymbolTableRecord
100
AcDbLinetypeTableRecord
  2
CENTERX2
 70
     0
  3
________  __  ________  __  ________  __  _____
 72
    65
 73
     4
 40
4.0
 49
2.5
 74
     0
 49
-0.5
 74
     0
 49
0.5
 74
     0
 49
-0.5
 74
     0
  0
LTYPE
  5
26
330
5
100
AcDbSymbolTableRecord
100
AcDbLinetypeTableRecord
  2
DASHDOT
 70
     0
  3
__ . __ . __ . __ . __ . __ . __ . __ . __ . __
 72
    65
 73
     4
 40
1.0
 49
0.5
 74
     0
 49
-0.25
 74
     0
 49
0.0
 74
     0
 49
-0.25
 74
     0
  0
LTYPE
  5
27
330
5
100
AcDbSymbolTableRecord
100
AcDbLinetypeTableRecord
  2
DASHDOT2
 70
     0
  3
_._._._._._._._._._._._._._._._._._._._._._._._
 72
    65
 73
     4
 40
0.5
 49
0.25
 74
     0
 49
-0.125
 74
     0
 49
0.0
 74
     0
 49
-0.125
 74
     0
  0
LTYPE
  5
28
330
5
100
AcDbSymbolTableRecord
100
AcDbLinetypeTableRecord
  2
DASHDOTX2
 70
     0
  3
____  .  ____  .  ____  .  ____  .  ____  .  __
 72
    65
 73
     4
 40
2.0
 49
1.0
 74
     0
 49
-0.5
 74
     0
 49
0.0
 74
     0
 49
-0.5
 74
     0
  0
LTYPE
  5
29
330
5
100
AcDbSymbolTableRecord
100
AcDbLinetypeTableRecord
  2
DASHED
 70
     0
  3
__ __ __ __ __ __ __ __ __ __ __ __ __ __ __ __
 72
    65
 73
     2
 40
0.75
 49
0.5
 74
     0
 49
-0.25
 74
     0
  0
LTYPE
  5
2A
330
5
100
AcDbSymbolTableRecord
100
AcDbLinetypeTableRecord
  2
DASHED2
 70
     0
  3
_ _ _ _ _ _ _ _ _ _ _ _ _ _ _ _ _ _ _ _ _ _ _ _
 72
    65
 73
     2
 40
0.375
 49
0.25
 74
     0
 49
-0.125
 74
     0
  0
LTYPE
  5
2B
330
5
100
AcDbSymbolTableRecord
100
AcDbLinetypeTableRecord
  2
DASHEDX2
 70
     0
  3
____  ____  ____  ____  ____  ____  ____  ____ 
 72
    65
 73
     2
 40
1.5
 49
1.0
 74
     0
 49
-0.5
 74
     0
  0
LTYPE
  5
2C
330
5
100
AcDbSymbolTableRecord
100
AcDbLinetypeTableRecord
  2
DIVIDE
 70
     0
  3
____ . . ____ . . ____ . . ____ . . ____ . . __
 72
    65
 73
     6
 40
1.25
 49
0.5
 74
     0
 49
-0.25
 74
     0
 49
0.0
 74
     0
 49
-0.25
 74
     0
 49
0.0
 74
     0
 49
-0.25
 74
     0
  0
LTYPE
  5
2D
330
5
100
AcDbSymbolTableRecord
100
AcDbLinetypeTableRecord
  2
DIVIDE2
 70
     0
  3
__..__..__..__..__..__..__..__..__..__..__..__.
 72
    65
 73
     6
 40
0.625
 49
0.25
 74
     0
 49
-0.125
 74
     0
 49
0.0
 74
     0
 49
-0.125
 74
     0
 49
0.0
 74
     0
 49
-0.125
 74
     0
  0
LTYPE
  5
2E
330
5
100
AcDbSymbolTableRecord
100
AcDbLinetypeTableRecord
  2
DIVIDEX2
 70
     0
  3
________  .  .  ________  .  .  ________  .  . 
 72
    65
 73
     6
 40
2.5
 49
1.0
 74
     0
 49
-0.5
 74
     0
 49
0.0
 74
     0
 49
-0.5
 74
     0
 49
0.0
 74
     0
 49
-0.5
 74
     0
  0
LTYPE
  5
2F
330
5
100
AcDbSymbolTableRecord
100
AcDbLinetypeTableRecord
  2
DOT
 70
     0
  3
. . . . . . . . . . . . . . . . . . . . . . . .
 72
    65
 73
     2
 40
0.25
 49
0.0
 74
     0
 49
-0.25
 74
     0
  0
LTYPE
  5
30
330
5
100
AcDbSymbolTableRecord
100
AcDbLinetypeTableRecord
  2
DOT2
 70
     0
  3
...............................................
 72
    65
 73
     2
 40
0.125
 49
0.0
 74
     0
 49
-0.125
 74
     0
  0
LTYPE
  5
31
330
5
100
AcDbSymbolTableRecord
100
AcDbLinetypeTableRecord
  2
DOTX2
 70
     0
  3
.  .  .  .  .  .  .  .  .  .  .  .  .  .  .  . 
 72
    65
 73
     2
 40
0.5
 49
0.0
 74
     0
 49
-0.5
 74
     0
  0
LTYPE
  5
32
330
5
100
AcDbSymbolTableRecord
100
AcDbLinetypeTableRecord
  2
HIDDEN
 70
     0
  3
__ __ __ __ __ __ __ __ __ __ __ __ __ __ __ __
 72
    65
 73
     2
 40
0.375
 49
0.25
 74
     0
 49
-0.125
 74
     0
  0
LTYPE
  5
33
330
5
100
AcDbSymbolTableRecord
100
AcDbLinetypeTableRecord
  2
HIDDEN2
 70
     0
  3
_ _ _ _ _ _ _ _ _ _ _ _ _ _ _ _ _ _ _ _ _ _ _ _
 72
    65
 73
     2
 40
0.1875
 49
0.125
 74
     0
 49
-0.0625
 74
     0
  0
LTYPE
  5
34
330
5
100
AcDbSymbolTableRecord
100
AcDbLinetypeTableRecord
  2
HIDDENX2
 70
     0
  3
____ ____ ____ ____ ____ ____ ____ ____ ____ __
 72
    65
 73
     2
 40
0.75
 49
0.5
 74
     0
 49
-0.25
 74
     0
  0
LTYPE
  5
35
330
5
100
AcDbSymbolTableRecord
100
AcDbLinetypeTableRecord
  2
PHANTOM
 70
     0
  3
______  __  __  ______  __  __  ______  __  __ 
 72
    65
 73
     6
 40
2.5
 49
1.25
 74
     0
 49
-0.25
 74
     0
 49
0.25
 74
     0
 49
-0.25
 74
     0
 49
0.25
 74
     0
 49
-0.25
 74
     0
  0
LTYPE
  5
36
330
5
100
AcDbSymbolTableRecord
100
AcDbLinetypeTableRecord
  2
PHANTOM2
 70
     0
  3
___ _ _ ___ _ _ ___ _ _ ___ _ _ ___ _ _ ___ _ _
 72
    65
 73
     6
 40
1.25
 49
0.625
 74
     0
 49
-0.125
 74
     0
 49
0.125
 74
     0
 49
-0.125
 74
     0
 49
0.125
 74
     0
 49
-0.125
 74
     0
  0
LTYPE
  5
37
330
5
100
AcDbSymbolTableRecord
100
AcDbLinetypeTableRecord
  2
PHANTOMX2
 70
     0
  3
____________    ____    ____    ____________   
 72
    65
 73
     6
 40
5.0
 49
2.5
 74
     0
 49
-0.5
 74
     0
 49
0.5
 74
     0
 49
-0.5
 74
     0
 49
0.5
 74
     0
 49
-0.5
 74
     0
  0
ENDTAB
  0
TABLE
  2
LAYER
  5
2
330
0
100
AcDbSymbolTable
 70
     2
  0
LAYER
  5
E
330
2
100
AcDbSymbolTableRecord
100
AcDbLayerTableRecord
  2
0
 70
     0
 62
     7
  6
CONTINUOUS
370
    -3
390
3AA
  0
LAYER
  5
39
330
2
100
AcDbSymbolTableRecord
100
AcDbLayerTableRecord
  2
LEVEL001
 70
     0
 62
     7
  6
CONTINUOUS
370
    -3
390
3AA
  0
ENDTAB
  0
TABLE
  2
STYLE
  5
3
330
0
100
AcDbSymbolTable
 70
     2
  0
STYLE
  5
F
330
3
100
AcDbSymbolTableRecord
100
AcDbTextStyleTableRecord
  2
STANDARD
 70
     0
 40
0.0
 41
1.0
 50
0.0
 71
     0
 42
0.2
  3
TXT
  4
BIGFONT
  0
STYLE
  5
38
330
3
100
AcDbSymbolTableRecord
100
AcDbTextStyleTableRecord
  2
STANDARD1
 70
     4
 40
0.0
 41
1.0
 50
0.0
 71
     0
 42
0.2
  3
TXT
  4
BIGFONT
  0
ENDTAB
  0
TABLE
  2
VIEW
  5
6
330
0
100
AcDbSymbolTable
 70
     0
  0
ENDTAB
  0
TABLE
  2
UCS
  5
7
330
0
100
AcDbSymbolTable
 70
     0
  0
ENDTAB
  0
TABLE
  2
APPID
  5
9
330
0
100
AcDbSymbolTable
 70
     1
  0
APPID
  5
10
330
9
100
AcDbSymbolTableRecord
100
AcDbRegAppTableRecord
  2
ACAD
 70
     0
  0
ENDTAB
  0
TABLE
  2
DIMSTYLE
  5
A
330
0
100
AcDbSymbolTable
 70
     1
100
AcDbDimStyleTable
  0
DIMSTYLE
105
1D
102
{ACAD_REACTORS
330
1B
102
}
330
A
100
AcDbSymbolTableRecord
100
AcDbDimStyleTableRecord
  2
STANDARD
 70
     0
178
     0
340
F
  0
ENDTAB
  0
TABLE
  2
BLOCK_RECORD
  5
1
330
0
100
AcDbSymbolTable
 70
     0
  0
BLOCK_RECORD
  5
18
330
1
100
AcDbSymbolTableRecord
100
AcDbBlockTableRecord
  2
*MODEL_SPACE
340
368
  0
BLOCK_RECORD
  5
15
330
1
100
AcDbSymbolTableRecord
100
AcDbBlockTableRecord
  2
*PAPER_SPACE
340
369
  0
ENDTAB
  0
ENDSEC
  0
SECTION
  2
BLOCKS
  0
BLOCK
  5
19
330
18
100
AcDbEntity
  8
0
100
AcDbBlockBegin
  2
*MODEL_SPACE
 70
     0
 10
0.0
 20
0.0
 30
0.0
  3
*MODEL_SPACE
  1
*MODEL_SPACE
  0
ENDBLK
  5
1A
330
18
100
AcDbEntity
  8
0
100
AcDbBlockEnd
  0
BLOCK
  5
16
330
15
100
AcDbEntity
 67
     1
  8
0
100
AcDbBlockBegin
  2
*PAPER_SPACE
 70
     0
 10
0.0
 20
0.0
 30
0.0
  3
*PAPER_SPACE
  1
*PAPER_SPACE
  0
ENDBLK
  5
17
330
15
100
AcDbEntity
 67
     1
  8
0
100
AcDbBlockEnd
  0
ENDSEC
  0
SECTION
  2
ENTITIES
  0
LWPOLYLINE
  5
3A
330
18
100
AcDbEntity
  8
LEVEL001
  6
Continuous
 62
     3
370
    20
100
AcDbPolyline
 90
        4
 70
     1
 43
0.0
 10
10.0
 20
10.0
 10
410.0
 20
10.0
 10
410.0
 20
287.0
 10
10.0
 20
287.0
  0
LWPOLYLINE
  5
3B
330
18
100
AcDbEntity
  8
LEVEL001
  6
Continuous
 62
     3
370
    20
100
AcDbPolyline
 90
        4
 70
     1
 43
0.0
 10
346.0
 20
10.0
 10
410.0
 20
10.0
 10
410.0
 20
287.0
 10
346.0
 20
287.0
  0
LINE
  5
3C
330
18
100
AcDbEntity
  8
LEVEL001
  6
Continuous
 62
     3
370
    20
100
AcDbLine
 10
346.0
 20
20.0
 30
0.0
 11
410.0
 21
20.0
 31
0.0
  0
LINE
  5
3D
330
18
100
AcDbEntity
  8
LEVEL001
  6
Continuous
 62
     3
370
    20
100
AcDbLine
 10
346.0
 20
30.0
 30
0.0
 11
410.0
 21
30.0
 31
0.0
  0
LINE
  5
3E
330
18
100
AcDbEntity
  8
LEVEL001
  6
Continuous
 62
     3
370
    20
100
AcDbLine
 10
346.0
 20
40.0
 30
0.0
 11
410.0
 21
40.0
 31
0.0
  0
LINE
  5
3F
330
18
100
AcDbEntity
  8
LEVEL001
  6
Continuous
 62
     3
370
    20
100
AcDbLine
 10
346.0
 20
50.0
 30
0.0
 11
410.0
 21
50.0
 31
0.0
  0
LINE
  5
40
330
18
100
AcDbEntity
  8
LEVEL001
  6
Continuous
 62
     3
370
    20
100
AcDbLine
 10
346.0
 20
60.0
 30
0.0
 11
410.0
 21
60.0
 31
0.0
  0
TEXT
  5
41
330
18
100
AcDbEntity
  8
LEVEL001
 62
     3
370
    20
100
AcDbText
 10
349.97305288127
 20
230.40689837639
 30
0.0
 40
3.0
  1
 制
 41
0.75
 72
     5
 11
354.47305288127
 21
230.40689837639
 31
0.0
100
AcDbText
  0
TEXT
  5
42
330
18
100
AcDbEntity
  8
LEVEL001
 62
     3
370
    20
100
AcDbText
 10
349.97305288127
 20
226.40689837639
 30
0.0
 40
3.0
  1
 定
 41
0.75
 72
     5
 11
354.47305288127
 21
226.40689837639
 31
0.0
100
AcDbText
  0
TEXT
  5
43
330
18
100
AcDbEntity
  8
LEVEL001
 62
     3
370
    20
100
AcDbText
 10
349.97305288127
 20
222.40689837639
 30
0.0
 40
3.0
  1
 風
 41
0.75
 72
     5
 11
354.47305288127
 21
222.40689837639
 31
0.0
100
AcDbText
  0
TEXT
  5
44
330
18
100
AcDbEntity
  8
LEVEL001
 62
     3
370
    20
100
AcDbText
 10
349.97305288127
 20
218.40689837639
 30
0.0
 40
3.0
  1
 速
 41
0.75
 72
     5
 11
354.47305288127
 21
218.40689837639
 31
0.0
100
AcDbText
  0
TEXT
  5
45
330
18
100
AcDbEntity
  8
LEVEL001
 62
     3
370
    20
100
AcDbText
 10
349.97305288127
 20
214.40689837639
 30
0.0
 40
3.0
  1
(Vo)
 41
0.5
 72
     5
 11
355.97305288127
 21
214.40689837639
 31
0.0
100
AcDbText
  0
TEXT
  5
46
330
18
100
AcDbEntity
  8
LEVEL001
 62
     3
370
    20
100
AcDbText
 10
356.6
 20
31.0
 30
0.0
 40
4.0
  1
－
 72
     5
 11
360.6
 21
31.0
 31
0.0
100
AcDbText
  0
LINE
  5
47
330
18
100
AcDbEntity
  8
LEVEL001
  6
Continuous
 62
     3
370
    20
100
AcDbLine
 10
346.0
 20
90.0
 30
0.0
 11
410.0
 21
90.0
 31
0.0
  0
LINE
  5
48
330
18
100
AcDbEntity
  8
LEVEL001
  6
Continuous
 62
     3
370
    20
100
AcDbLine
 10
346.0
 20
85.0
 30
0.0
 11
410.0
 21
85.0
 31
0.0
  0
LINE
  5
49
330
18
100
AcDbEntity
  8
LEVEL001
  6
Continuous
 62
     3
370
    20
100
AcDbLine
 10
346.0
 20
95.0
 30
0.0
 11
410.0
 21
95.0
 31
0.0
  0
LINE
  5
4A
330
18
100
AcDbEntity
  8
LEVEL001
  6
Continuous
 62
     3
370
    20
100
AcDbLine
 10
346.0
 20
100.0
 30
0.0
 11
410.0
 21
100.0
 31
0.0
  0
LINE
  5
4B
330
18
100
AcDbEntity
  8
LEVEL001
  6
Continuous
 62
     3
370
    20
100
AcDbLine
 10
346.0
 20
110.0
 30
0.0
 11
410.0
 21
110.0
 31
0.0
  0
LINE
  5
4C
330
18
100
AcDbEntity
  8
LEVEL001
  6
Continuous
 62
     3
370
    20
100
AcDbLine
 10
346.0
 20
120.0
 30
0.0
 11
410.0
 21
120.0
 31
0.0
  0
LINE
  5
4D
330
18
100
AcDbEntity
  8
LEVEL001
  6
Continuous
 62
     3
370
    20
100
AcDbLine
 10
346.0
 20
130.0
 30
0.0
 11
410.0
 21
130.0
 31
0.0
  0
LINE
  5
4E
330
18
100
AcDbEntity
  8
LEVEL001
  6
Continuous
 62
     3
370
    20
100
AcDbLine
 10
346.0
 20
140.0
 30
0.0
 11
410.0
 21
140.0
 31
0.0
  0
LINE
  5
4F
330
18
100
AcDbEntity
  8
LEVEL001
  6
Continuous
 62
     3
370
    20
100
AcDbLine
 10
354.0
 20
100.0
 30
0.0
 11
354.0
 21
80.0
 31
0.0
  0
LINE
  5
50
330
18
100
AcDbEntity
  8
LEVEL001
  6
Continuous
 62
     3
370
    20
100
AcDbLine
 10
346.0
 20
105.0
 30
0.0
 11
410.0
 21
105.0
 31
0.0
  0
LINE
  5
51
330
18
100
AcDbEntity
  8
LEVEL001
  6
Continuous
 62
     3
370
    20
100
AcDbLine
 10
346.0
 20
115.0
 30
0.0
 11
410.0
 21
115.0
 31
0.0
  0
LINE
  5
52
330
18
100
AcDbEntity
  8
LEVEL001
  6
Continuous
 62
     3
370
    20
100
AcDbLine
 10
346.0
 20
125.0
 30
0.0
 11
410.0
 21
125.0
 31
0.0
  0
LINE
  5
53
330
18
100
AcDbEntity
  8
LEVEL001
  6
Continuous
 62
     3
370
    20
100
AcDbLine
 10
346.0
 20
135.0
 30
0.0
 11
410.0
 21
135.0
 31
0.0
  0
LINE
  5
54
330
18
100
AcDbEntity
  8
LEVEL001
  6
Continuous
 62
     3
370
    20
100
AcDbLine
 10
380.0
 20
100.0
 30
0.0
 11
380.0
 21
85.0
 31
0.0
  0
LINE
  5
55
330
18
100
AcDbEntity
  8
LEVEL001
  6
Continuous
 62
     3
370
    20
100
AcDbLine
 10
351.0
 20
140.0
 30
0.0
 11
351.0
 21
100.0
 31
0.0
  0
LINE
  5
56
330
18
100
AcDbEntity
  8
LEVEL001
  6
Continuous
 62
     3
370
    20
100
AcDbLine
 10
386.0
 20
140.0
 30
0.0
 11
386.0
 21
100.0
 31
0.0
  0
LINE
  5
57
330
18
100
AcDbEntity
  8
LEVEL001
  6
Continuous
 62
     3
370
    20
100
AcDbLine
 10
381.0
 20
140.0
 30
0.0
 11
381.0
 21
100.0
 31
0.0
  0
LINE
  5
58
330
18
100
AcDbEntity
  8
LEVEL001
  6
Continuous
 62
     3
370
    20
100
AcDbLine
 10
346.0
 20
80.0
 30
0.0
 11
410.0
 21
80.0
 31
0.0
  0
TEXT
  5
59
330
18
100
AcDbEntity
  8
LEVEL001
 62
     3
370
    20
100
AcDbText
 10
346.25
 20
111.0
 30
0.0
 40
3.0
  1
１－２
 41
0.5
 72
     5
 11
350.75
 21
111.0
 31
0.0
100
AcDbText
  0
TEXT
  5
5A
330
18
100
AcDbEntity
  8
LEVEL001
 62
     3
370
    20
100
AcDbText
 10
346.25
 20
106.0
 30
0.0
 40
3.0
  1
１－１
 41
0.5
 72
     5
 11
350.75
 21
106.0
 31
0.0
100
AcDbText
  0
TEXT
  5
5B
330
18
100
AcDbEntity
  8
LEVEL001
 62
     3
370
    20
100
AcDbText
 10
382.75
 20
106.0
 30
0.0
 40
3.0
  1
１
 41
0.5
 72
     5
 11
384.25
 21
106.0
 31
0.0
100
AcDbText
  0
TEXT
  5
5C
330
18
100
AcDbEntity
  8
LEVEL001
 62
     3
370
    20
100
AcDbText
 10
382.75
 20
111.0
 30
0.0
 40
3.0
  1
１
 41
0.5
 72
     5
 11
384.25
 21
111.0
 31
0.0
100
AcDbText
  0
TEXT
  5
5D
330
18
100
AcDbEntity
  8
LEVEL001
 62
     3
370
    20
100
AcDbText
 10
382.75
 20
116.0
 30
0.0
 40
3.0
  1
１
 41
0.5
 72
     5
 11
384.25
 21
116.0
 31
0.0
100
AcDbText
  0
TEXT
  5
5E
330
18
100
AcDbEntity
  8
LEVEL001
 62
     3
370
    20
100
AcDbText
 10
382.75
 20
121.0
 30
0.0
 40
3.0
  1
１
 41
0.5
 72
     5
 11
384.25
 21
121.0
 31
0.0
100
AcDbText
  0
TEXT
  5
5F
330
18
100
AcDbEntity
  8
LEVEL001
 62
     3
370
    20
100
AcDbText
 10
347.0
 20
36.0
 30
0.0
 40
3.0
  1
品名コード
 72
     5
 11
362.0
 21
36.0
 31
0.0
100
AcDbText
  0
TEXT
  5
60
330
18
100
AcDbEntity
  8
LEVEL001
 62
     3
370
    20
100
AcDbText
 10
347.0
 20
26.0
 30
0.0
 40
3.0
  1
図面Ｎｏ．
 72
     5
 11
362.0
 21
26.0
 31
0.0
100
AcDbText
  0
TEXT
  5
61
330
18
100
AcDbEntity
  8
LEVEL001
 62
     3
370
    20
100
AcDbText
 10
347.0
 20
46.0
 30
0.0
 40
3.0
  1
型式
 72
     5
 11
353.0
 21
46.0
 31
0.0
100
AcDbText
  0
TEXT
  5
62
330
18
100
AcDbEntity
  8
LEVEL001
 62
     3
370
    20
100
AcDbText
 10
347.0
 20
56.0
 30
0.0
 40
3.0
  1
品名
 72
     5
 11
353.0
 21
56.0
 31
0.0
100
AcDbText
  0
TEXT
  5
63
330
18
100
AcDbEntity
  8
LEVEL001
 62
     3
370
    20
100
AcDbText
 10
347.0
 20
76.0
 30
0.0
 40
3.0
  1
件名
 72
     5
 11
353.0
 21
76.0
 31
0.0
100
AcDbText
  0
TEXT
  5
64
330
18
100
AcDbEntity
  8
LEVEL001
 62
     3
370
    20
100
AcDbText
 10
346.75
 20
81.0
 30
0.0
 40
3.0
  1
尺度
 72
     5
 11
352.75
 21
81.0
 31
0.0
100
AcDbText
  0
TEXT
  5
65
330
18
100
AcDbEntity
  8
LEVEL001
 62
     3
370
    20
100
AcDbText
 10
346.75
 20
86.0
 30
0.0
 40
3.0
  1
承認
 72
     5
 11
352.75
 21
86.0
 31
0.0
100
AcDbText
  0
TEXT
  5
66
330
18
100
AcDbEntity
  8
LEVEL001
 62
     3
370
    20
100
AcDbText
 10
346.75
 20
91.0
 30
0.0
 40
3.0
  1
審査
 72
     5
 11
352.75
 21
91.0
 31
0.0
100
AcDbText
  0
TEXT
  5
67
330
18
100
AcDbEntity
  8
LEVEL001
 62
     3
370
    20
100
AcDbText
 10
346.75
 20
96.0
 30
0.0
 40
3.0
  1
作成
 72
     5
 11
352.75
 21
96.0
 31
0.0
100
AcDbText
  0
TEXT
  5
68
330
18
100
AcDbEntity
  8
LEVEL001
 62
     3
370
    20
100
AcDbText
 10
346.0
 20
101.0
 30
0.0
 40
3.0
  1
品番
 41
0.83333333333333
 72
     5
 11
351.0
 21
101.0
 31
0.0
100
AcDbText
  0
TEXT
  5
69
330
18
100
AcDbEntity
  8
LEVEL001
 62
     3
370
    20
100
AcDbText
 10
357.5
 20
101.0
 30
0.0
 40
3.0
  1
品　　　名
 72
     5
 11
372.5
 21
101.0
 31
0.0
100
AcDbText
  0
TEXT
  5
6A
330
18
100
AcDbEntity
  8
LEVEL001
 62
     3
370
    20
100
AcDbText
 10
381.0
 20
101.0
 30
0.0
 40
3.0
  1
数量
 41
0.83333333333333
 72
     5
 11
386.0
 21
101.0
 31
0.0
100
AcDbText
  0
TEXT
  5
6B
330
18
100
AcDbEntity
  8
LEVEL001
 62
     3
370
    20
100
AcDbText
 10
389.5
 20
101.0
 30
0.0
 40
3.0
  1
材　　　質
 72
     5
 11
404.5
 21
101.0
 31
0.0
100
AcDbText
  0
TEXT
  5
6C
330
18
100
AcDbEntity
  8
LEVEL001
 62
     3
370
    20
100
AcDbText
 10
356.6
 20
51.0
 30
0.0
 40
4.0
  1
アルミニウム合金製旗用ポール
 41
0.875
 72
     5
 11
405.6
 21
51.0
 31
0.0
100
AcDbText
  0
LINE
  5
6D
330
18
100
AcDbEntity
  8
LEVEL001
  6
DASHDOT
 62
     1
370
    15
100
AcDbLine
 10
304.79549779622
 20
117.97558510015
 30
0.0
 11
304.79549779622
 21
72.780084713422
 31
0.0
  0
TEXT
  5
6E
330
18
100
AcDbEntity
  8
LEVEL001
 62
     3
370
    20
100
AcDbText
 10
297.54549779622
 20
41.949581522676
 30
0.0
 40
5.0
  1
Ｓ＝１：５
 41
0.58
 72
     5
 11
312.04549779622
 21
41.949581522676
 31
0.0
100
AcDbText
  0
TEXT
  5
6F
330
18
100
AcDbEntity
  8
LEVEL001
 62
     3
370
    20
100
AcDbText
 10
280.29549779622
 20
47.949581522676
 30
0.0
 40
5.0
  1
グランドカバー詳細
 41
1.0888888888889
 72
     5
 11
329.29549779622
 21
47.949581522676
 31
0.0
100
AcDbText
  0
LINE
  5
70
330
18
100
AcDbEntity
  8
LEVEL001
  6
Continuous
 62
     3
370
    20
100
AcDbLine
 10
277.79549779622
 20
46.949581522676
 30
0.0
 11
331.79549779622
 21
46.949581522676
 31
0.0
  0
LINE
  5
71
330
18
100
AcDbEntity
  8
LEVEL001
  6
Continuous
 62
     3
370
    20
100
AcDbLine
 10
273.33549779621
 20
88.149936811498
 30
0.0
 11
278.33549779621
 21
79.489682773653
 31
0.0
  0
LINE
  5
72
330
18
100
AcDbEntity
  8
LEVEL001
  6
Continuous
 62
     3
370
    20
100
AcDbLine
 10
274.89199264658
 20
79.489682773653
 30
0.0
 11
276.6137452214
 21
82.471845711302
 31
0.0
  0
LINE
  5
73
330
18
100
AcDbEntity
  8
LEVEL001
  6
Continuous
 62
     3
370
    20
100
AcDbLine
 10
268.33549779622
 20
79.489682773653
 30
0.0
 11
273.33549779621
 21
88.149936811498
 31
0.0
  0
LINE
  5
74
330
18
100
AcDbEntity
  8
LEVEL001
  6
Continuous
 62
     3
370
    20
100
AcDbLine
 10
266.63549779622
 20
88.149936811498
 30
0.0
 11
269.98549779621
 21
82.347566606142
 31
0.0
  0
LINE
  5
75
330
18
100
AcDbEntity
  8
LEVEL001
  6
Continuous
 62
     3
370
    20
100
AcDbLine
 10
269.93549779621
 20
88.149936811498
 30
0.0
 11
271.63549779621
 21
85.205450438631
 31
0.0
  0
LINE
  5
76
330
18
100
AcDbEntity
  8
LEVEL001
  6
Continuous
 62
     3
370
    20
100
AcDbLine
 10
271.59199264658
 20
79.489682773653
 30
0.0
 11
274.9637452214
 21
85.329729543791
 31
0.0
  0
LINE
  5
77
330
18
100
AcDbEntity
  8
LEVEL001
  6
Continuous
 62
     3
370
    20
100
AcDbLine
 10
276.63549779621
 20
88.149936811498
 30
0.0
 11
278.33549779621
 21
85.205450438631
 31
0.0
  0
ARC
  5
78
330
18
100
AcDbEntity
  8
LEVEL001
  6
Continuous
 62
     3
370
    20
100
AcDbCircle
 10
322.59549779622
 20
91.949936811498
 30
0.0
 40
8.2
100
AcDbArc
 50
0.0
 51
90.000000000001
  0
POINT
  5
79
330
18
100
AcDbEntity
  8
LEVEL001
 62
     3
100
AcDbPoint
 10
330.79549779622
 20
100.1499368115
 30
0.0
  0
LINE
  5
7A
330
18
100
AcDbEntity
  8
LEVEL001
  6
Continuous
 62
     3
370
    20
100
AcDbLine
 10
330.79549779622
 20
91.949936811498
 30
0.0
 11
330.79549779622
 21
88.149936811498
 31
0.0
  0
ARC
  5
7B
330
18
100
AcDbEntity
  8
LEVEL001
  6
Continuous
 62
     3
370
    20
100
AcDbCircle
 10
322.59549779622
 20
91.949936811498
 30
0.0
 40
8.6
100
AcDbArc
 50
0.0000000000000757
 51
90.000000000001
  0
POINT
  5
7C
330
18
100
AcDbEntity
  8
LEVEL001
 62
     3
100
AcDbPoint
 10
331.19549779622
 20
100.5499368115
 30
0.0
  0
LINE
  5
7D
330
18
100
AcDbEntity
  8
LEVEL001
  6
Continuous
 62
     3
370
    20
100
AcDbLine
 10
331.19549779622
 20
91.949936811498
 30
0.0
 11
331.19549779622
 21
88.149936811498
 31
0.0
  0
ARC
  5
7E
330
18
100
AcDbEntity
  8
LEVEL001
  6
Continuous
 62
     3
370
    20
100
AcDbCircle
 10
286.99549779622
 20
91.949936811498
 30
0.0
 40
8.6
100
AcDbArc
 50
89.999999999999
 51
180.0
  0
LINE
  5
7F
330
18
100
AcDbEntity
  8
LEVEL001
  6
Continuous
 62
     3
370
    20
100
AcDbLine
 10
278.39549779622
 20
91.949936811498
 30
0.0
 11
278.39549779622
 21
88.149936811498
 31
0.0
  0
LINE
  5
80
330
18
100
AcDbEntity
  8
LEVEL001
  6
Continuous
 62
     3
370
    20
100
AcDbLine
 10
304.79549779622
 20
100.5499368115
 30
0.0
 11
286.99549779622
 21
100.5499368115
 31
0.0
  0
LINE
  5
81
330
18
100
AcDbEntity
  8
LEVEL001
  6
Continuous
 62
     3
370
    20
100
AcDbLine
 10
278.39549779622
 20
88.149936811498
 30
0.0
 11
304.79549779622
 21
88.149936811498
 31
0.0
  0
LINE
  5
82
330
18
100
AcDbEntity
  8
LEVEL001
  6
Continuous
 62
     3
370
    20
100
AcDbLine
 10
278.39549779622
 20
88.149936811498
 30
0.0
 11
266.64983105168
 21
88.149936811498
 31
0.0
  0
TEXT
  5
83
330
18
100
AcDbEntity
  8
LEVEL001
 62
     3
370
    20
100
AcDbText
 10
352.0
 20
106.0
 30
0.0
 40
3.0
  1
根元ポール
 72
     5
 11
367.0
 21
106.0
 31
0.0
100
AcDbText
  0
TEXT
  5
84
330
18
100
AcDbEntity
  8
LEVEL001
 62
     3
370
    20
100
AcDbText
 10
264.72028130672
 20
29.790463140325
 30
0.0
 40
4.0
  1
※グランドカバーは、ポール埋込部の
 41
1.1176470588235
 72
     5
 11
340.72028130672
 21
29.790463140325
 31
0.0
100
AcDbText
  0
TEXT
  5
85
330
18
100
AcDbEntity
  8
LEVEL001
 62
     3
370
    20
100
AcDbText
 10
264.72028130672
 20
24.457129806992
 30
0.0
 40
4.0
  1
　化粧用で、別梱包部品です。
 41
1.1160714285714
 72
     5
 11
327.22028130672
 21
24.457129806992
 31
0.0
100
AcDbText
  0
LINE
  5
86
330
18
100
AcDbEntity
  8
LEVEL001
  6
Continuous
 62
     3
370
    20
100
AcDbLine
 10
321.29549779622
 20
114.11401206556
 30
0.0
 11
321.29549779622
 21
76.02974079413
 31
0.0
  0
LINE
  5
87
330
18
100
AcDbEntity
  8
LEVEL001
  6
Continuous
 62
     3
370
    20
100
AcDbLine
 10
320.49549779622
 20
114.53943121457
 30
0.0
 11
320.49549779622
 21
76.455159943135
 31
0.0
  0
LINE
  5
88
330
18
100
AcDbEntity
  8
LEVEL001
  6
Continuous
 62
     3
370
    20
100
AcDbLine
 10
321.29549779622
 20
100.1499368115
 30
0.0
 11
322.59549779622
 21
100.1499368115
 31
0.0
  0
LINE
  5
89
330
18
100
AcDbEntity
  8
LEVEL001
  6
Continuous
 62
     3
370
    20
100
AcDbLine
 10
321.29549779622
 20
100.5499368115
 30
0.0
 11
322.59549779622
 21
100.5499368115
 31
0.0
  0
LINE
  5
8A
330
18
100
AcDbEntity
  8
LEVEL001
  6
Continuous
 62
     3
370
    20
100
AcDbLine
 10
321.59549779622
 20
100.1499368115
 30
0.0
 11
321.59549779622
 21
100.5499368115
 31
0.0
  0
LINE
  5
8B
330
18
100
AcDbEntity
  8
LEVEL001
  6
Continuous
 62
     3
370
    20
100
AcDbLine
 10
331.19549779622
 20
88.149936811498
 30
0.0
 11
321.29549779622
 21
88.149936811498
 31
0.0
  0
LINE
  5
8C
330
18
100
AcDbEntity
  8
LEVEL001
  6
Continuous
 62
     3
370
    20
100
AcDbLine
 10
288.29549779622
 20
114.11401206556
 30
0.0
 11
288.29549779622
 21
100.5499368115
 31
0.0
  0
LINE
  5
8D
330
18
100
AcDbEntity
  8
LEVEL001
  6
Continuous
 62
     3
370
    20
100
AcDbLine
 10
288.29549779622
 20
88.149936811498
 30
0.0
 11
288.29549779622
 21
76.02974079413
 31
0.0
  0
ARC
  5
8E
330
18
100
AcDbEntity
  8
LEVEL001
  6
Continuous
 62
     3
370
    20
100
AcDbCircle
 10
313.04549779621
 20
99.824592903119
 30
0.0
 40
16.5
100
AcDbArc
 50
59.99999999999701
 51
120.0
  0
ARC
  5
8F
330
18
100
AcDbEntity
  8
LEVEL001
  6
Continuous
 62
     3
370
    20
100
AcDbCircle
 10
296.54549779621
 20
128.40343122801
 30
0.0
 40
16.5
100
AcDbArc
 50
240.0
 51
300.0
  0
ARC
  5
90
330
18
100
AcDbEntity
  8
LEVEL001
  6
Continuous
 62
     3
370
    20
100
AcDbCircle
 10
296.54549779621
 20
99.824592903118
 30
0.0
 40
16.5
100
AcDbArc
 50
59.99999999999901
 51
120.0
  0
ARC
  5
91
330
18
100
AcDbEntity
  8
LEVEL001
  6
Continuous
 62
     3
370
    20
100
AcDbCircle
 10
296.54549779621
 20
90.319159956573
 30
0.0
 40
16.5
100
AcDbArc
 50
240.0
 51
300.0
  0
ARC
  5
92
330
18
100
AcDbEntity
  8
LEVEL001
  6
Continuous
 62
     3
370
    20
100
AcDbCircle
 10
313.04549779621
 20
61.740321631687
 30
0.0
 40
16.5
100
AcDbArc
 50
59.99999999999701
 51
120.0
  0
ARC
  5
93
330
18
100
AcDbEntity
  8
LEVEL001
  6
Continuous
 62
     3
370
    20
100
AcDbCircle
 10
296.54549779621
 20
99.824592903118
 30
0.0
 40
15.9
100
AcDbArc
 50
61.32014193769399
 51
118.67985806231
  0
TEXT
  5
94
330
18
100
AcDbEntity
  8
LEVEL001
 62
     3
370
    20
100
AcDbText
 10
352.0
 20
121.0
 30
0.0
 40
3.0
  1
キャップ
 72
     5
 11
364.0
 21
121.0
 31
0.0
100
AcDbText
  0
TEXT
  5
95
330
18
100
AcDbEntity
  8
LEVEL001
 62
     3
370
    20
100
AcDbText
 10
352.0
 20
116.0
 30
0.0
 40
3.0
  1
先端ポール
 72
     5
 11
367.0
 21
116.0
 31
0.0
100
AcDbText
  0
TEXT
  5
96
330
18
100
AcDbEntity
  8
LEVEL001
 62
     3
370
    20
100
AcDbText
 10
347.75
 20
121.0
 30
0.0
 40
3.0
  1
２
 41
0.5
 72
     5
 11
349.25
 21
121.0
 31
0.0
100
AcDbText
  0
TEXT
  5
97
330
18
100
AcDbEntity
  8
LEVEL001
 62
     3
370
    20
100
AcDbText
 10
346.25
 20
116.0
 30
0.0
 40
3.0
  1
１－３
 41
0.5
 72
     5
 11
350.75
 21
116.0
 31
0.0
100
AcDbText
  0
TEXT
  5
98
330
18
100
AcDbEntity
  8
LEVEL001
 62
     3
370
    20
100
AcDbText
 10
352.0
 20
111.0
 30
0.0
 40
3.0
  1
中間ポール
 72
     5
 11
367.0
 21
111.0
 31
0.0
100
AcDbText
  0
TEXT
  5
99
330
18
100
AcDbEntity
  8
LEVEL001
 62
     3
370
    20
100
AcDbText
 10
387.0
 20
121.0
 30
0.0
 40
3.0
  1
ＡＤＣ５/Ａ１１００－Ｏ
 41
0.63888888888889
 72
     5
 11
410.0
 21
121.0
 31
0.0
100
AcDbText
  0
LINE
  5
9A
330
18
100
AcDbEntity
  8
LEVEL001
  6
Continuous
 62
     1
370
    15
100
AcDbLine
 10
331.19549779622
 20
86.149936811498
 30
0.0
 11
331.19549779622
 21
59.335993612425
 31
0.0
  0
LINE
  5
9B
330
18
100
AcDbEntity
  8
LEVEL001
  6
Continuous
 62
     1
370
    15
100
AcDbLine
 10
278.39549779622
 20
86.149936811498
 30
0.0
 11
278.39549779622
 21
59.335993612425
 31
0.0
  0
LINE
  5
9C
330
18
100
AcDbEntity
  8
LEVEL001
  6
Continuous
 62
     1
370
    15
100
AcDbLine
 10
331.19549779622
 20
61.335993612425
 30
0.0
 11
304.79549779622
 21
61.335993612425
 31
0.0
  0
LINE
  5
9D
330
18
100
AcDbEntity
  8
LEVEL001
  6
Continuous
 62
     1
370
    15
100
AcDbLine
 10
278.39549779622
 20
61.335993612425
 30
0.0
 11
304.79549779622
 21
61.335993612425
 31
0.0
  0
LINE
  5
9E
330
18
100
AcDbEntity
  8
LEVEL001
  6
Continuous
 62
     1
370
    15
100
AcDbLine
 10
331.19549779622
 20
61.335993612425
 30
0.0
 11
328.19549779622
 21
62.139841189718
 31
0.0
  0
LINE
  5
9F
330
18
100
AcDbEntity
  8
LEVEL001
  6
Continuous
 62
     1
370
    15
100
AcDbLine
 10
331.19549779622
 20
61.335993612425
 30
0.0
 11
328.19549779622
 21
60.532146035132
 31
0.0
  0
LINE
  5
A0
330
18
100
AcDbEntity
  8
LEVEL001
  6
Continuous
 62
     1
370
    15
100
AcDbLine
 10
278.39549779622
 20
61.335993612425
 30
0.0
 11
281.39549779622
 21
60.532146035132
 31
0.0
  0
LINE
  5
A1
330
18
100
AcDbEntity
  8
LEVEL001
  6
Continuous
 62
     1
370
    15
100
AcDbLine
 10
278.39549779622
 20
61.335993612425
 30
0.0
 11
281.39549779622
 21
62.139841189718
 31
0.0
  0
MTEXT
  5
A2
330
18
100
AcDbEntity
  8
LEVEL001
 62
     3
370
    20
100
AcDbMText
 10
304.79549779622
 20
63.050279326711
 30
0.0
 40
4.0
 41
0.0
 71
     8
 72
     1
  1
\A1;(%%c264)
 73
     1
 44
1.0
  0
LINE
  5
A3
330
18
100
AcDbEntity
  8
LEVEL001
  6
Continuous
 62
     1
370
    15
100
AcDbLine
 10
275.33549779622
 20
88.149936811498
 30
0.0
 11
261.54536288216
 21
88.149936811498
 31
0.0
  0
LINE
  5
A4
330
18
100
AcDbEntity
  8
LEVEL001
  6
Continuous
 62
     1
370
    15
100
AcDbLine
 10
283.99549779622
 20
100.5499368115
 30
0.0
 11
261.54536288216
 21
100.5499368115
 31
0.0
  0
LINE
  5
A5
330
18
100
AcDbEntity
  8
LEVEL001
  6
Continuous
 62
     1
370
    15
100
AcDbLine
 10
263.54536288216
 20
88.149936811498
 30
0.0
 11
263.54536288216
 21
94.349936811498
 31
0.0
  0
LINE
  5
A6
330
18
100
AcDbEntity
  8
LEVEL001
  6
Continuous
 62
     1
370
    15
100
AcDbLine
 10
263.54536288216
 20
100.5499368115
 30
0.0
 11
263.54536288216
 21
94.349936811498
 31
0.0
  0
LINE
  5
A7
330
18
100
AcDbEntity
  8
LEVEL001
  6
Continuous
 62
     1
370
    15
100
AcDbLine
 10
263.54536288216
 20
88.149936811498
 30
0.0
 11
264.34921045945
 21
91.149936811498
 31
0.0
  0
LINE
  5
A8
330
18
100
AcDbEntity
  8
LEVEL001
  6
Continuous
 62
     1
370
    15
100
AcDbLine
 10
263.54536288216
 20
88.149936811498
 30
0.0
 11
262.74151530486
 21
91.149936811498
 31
0.0
  0
LINE
  5
A9
330
18
100
AcDbEntity
  8
LEVEL001
  6
Continuous
 62
     1
370
    15
100
AcDbLine
 10
263.54536288216
 20
100.5499368115
 30
0.0
 11
262.74151530486
 21
97.549936811498
 31
0.0
  0
LINE
  5
AA
330
18
100
AcDbEntity
  8
LEVEL001
  6
Continuous
 62
     1
370
    15
100
AcDbLine
 10
263.54536288216
 20
100.5499368115
 30
0.0
 11
264.34921045945
 21
97.549936811498
 31
0.0
  0
MTEXT
  5
AB
330
18
100
AcDbEntity
  8
LEVEL001
 62
     3
370
    20
100
AcDbMText
 10
261.83107716787
 20
94.349936811498
 30
0.0
 40
4.0
 41
0.0
 71
     8
 72
     1
  1
\A1;(62)
 11
0.0
 21
1.0
 31
0.0
 73
     1
 44
1.0
  0
LINE
  5
AC
330
18
100
AcDbEntity
  8
LEVEL001
  6
Continuous
 62
     1
370
    15
100
AcDbLine
 10
321.29549779622
 20
116.11401206556
 30
0.0
 11
321.29549779622
 21
126.66329574989
 31
0.0
  0
LINE
  5
AD
330
18
100
AcDbEntity
  8
LEVEL001
  6
Continuous
 62
     1
370
    15
100
AcDbLine
 10
288.29549779622
 20
116.11401206556
 30
0.0
 11
288.29549779622
 21
126.66329574989
 31
0.0
  0
LINE
  5
AE
330
18
100
AcDbEntity
  8
LEVEL001
  6
Continuous
 62
     1
370
    15
100
AcDbLine
 10
321.29549779622
 20
124.66329574989
 30
0.0
 11
304.79549779622
 21
124.66329574989
 31
0.0
  0
LINE
  5
AF
330
18
100
AcDbEntity
  8
LEVEL001
  6
Continuous
 62
     1
370
    15
100
AcDbLine
 10
288.29549779622
 20
124.66329574989
 30
0.0
 11
304.79549779622
 21
124.66329574989
 31
0.0
  0
LINE
  5
B0
330
18
100
AcDbEntity
  8
LEVEL001
  6
Continuous
 62
     1
370
    15
100
AcDbLine
 10
321.29549779622
 20
124.66329574989
 30
0.0
 11
318.29549779622
 21
125.46714332718
 31
0.0
  0
LINE
  5
B1
330
18
100
AcDbEntity
  8
LEVEL001
  6
Continuous
 62
     1
370
    15
100
AcDbLine
 10
321.29549779622
 20
124.66329574989
 30
0.0
 11
318.29549779622
 21
123.85944817259
 31
0.0
  0
LINE
  5
B2
330
18
100
AcDbEntity
  8
LEVEL001
  6
Continuous
 62
     1
370
    15
100
AcDbLine
 10
288.29549779622
 20
124.66329574989
 30
0.0
 11
291.29549779622
 21
123.85944817259
 31
0.0
  0
LINE
  5
B3
330
18
100
AcDbEntity
  8
LEVEL001
  6
Continuous
 62
     1
370
    15
100
AcDbLine
 10
288.29549779622
 20
124.66329574989
 30
0.0
 11
291.29549779622
 21
125.46714332718
 31
0.0
  0
MTEXT
  5
B4
330
18
100
AcDbEntity
  8
LEVEL001
 62
     3
370
    20
100
AcDbMText
 10
304.79549779622
 20
126.37758146417
 30
0.0
 40
4.0
 41
0.0
 71
     8
 72
     1
  1
\A1;%%c165
 73
     1
 44
1.0
  0
TEXT
  5
B5
330
18
100
AcDbEntity
  8
LEVEL001
 62
     3
370
    20
100
AcDbText
 10
347.75
 20
126.0
 30
0.0
 40
3.0
  1
３
 41
0.5
 72
     5
 11
349.25
 21
126.0
 31
0.0
100
AcDbText
  0
TEXT
  5
B6
330
18
100
AcDbEntity
  8
LEVEL001
 62
     3
370
    20
100
AcDbText
 10
347.75
 20
131.0
 30
0.0
 40
3.0
  1
４
 41
0.5
 72
     5
 11
349.25
 21
131.0
 31
0.0
100
AcDbText
  0
TEXT
  5
B7
330
18
100
AcDbEntity
  8
LEVEL001
 62
     3
370
    20
100
AcDbText
 10
347.75
 20
136.0
 30
0.0
 40
3.0
  1
５
 41
0.5
 72
     5
 11
349.25
 21
136.0
 31
0.0
100
AcDbText
  0
TEXT
  5
B8
330
18
100
AcDbEntity
  8
LEVEL001
 62
     3
370
    20
100
AcDbText
 10
352.0
 20
136.0
 30
0.0
 40
3.0
  1
グランドカバー
 72
     5
 11
373.0
 21
136.0
 31
0.0
100
AcDbText
  0
TEXT
  5
B9
330
18
100
AcDbEntity
  8
LEVEL001
 62
     3
370
    20
100
AcDbText
 10
352.0
 20
131.0
 30
0.0
 40
3.0
  1
クリート
 72
     5
 11
364.0
 21
131.0
 31
0.0
100
AcDbText
  0
TEXT
  5
BA
330
18
100
AcDbEntity
  8
LEVEL001
 62
     3
370
    20
100
AcDbText
 10
382.75
 20
126.0
 30
0.0
 40
3.0
  1
１
 41
0.5
 72
     5
 11
384.25
 21
126.0
 31
0.0
100
AcDbText
  0
TEXT
  5
BB
330
18
100
AcDbEntity
  8
LEVEL001
 62
     3
370
    20
100
AcDbText
 10
382.75
 20
131.0
 30
0.0
 40
3.0
  1
１
 41
0.5
 72
     5
 11
384.25
 21
131.0
 31
0.0
100
AcDbText
  0
TEXT
  5
BC
330
18
100
AcDbEntity
  8
LEVEL001
 62
     3
370
    20
100
AcDbText
 10
382.75
 20
136.0
 30
0.0
 40
3.0
  1
１
 41
0.5
 72
     5
 11
384.25
 21
136.0
 31
0.0
100
AcDbText
  0
TEXT
  5
BD
330
18
100
AcDbEntity
  8
LEVEL001
 62
     3
370
    20
100
AcDbText
 10
387.0
 20
136.0
 30
0.0
 40
3.0
  1
Ａ５０５２Ｐ
 41
0.66666666666667
 72
     5
 11
399.0
 21
136.0
 31
0.0
100
AcDbText
  0
TEXT
  5
BE
330
18
100
AcDbEntity
  8
LEVEL001
 62
     3
370
    20
100
AcDbText
 10
387.0
 20
131.0
 30
0.0
 40
3.0
  1
ＡＤＣ５
 41
0.66666666666667
 72
     5
 11
395.0
 21
131.0
 31
0.0
100
AcDbText
  0
TEXT
  5
BF
330
18
100
AcDbEntity
  8
LEVEL001
 62
     3
370
    20
100
AcDbText
 10
387.0
 20
126.0
 30
0.0
 40
3.0
  1
ジュラコン
 41
0.66666666666667
 72
     5
 11
397.0
 21
126.0
 31
0.0
100
AcDbText
  0
TEXT
  5
C0
330
18
100
AcDbEntity
  8
LEVEL001
 62
     3
370
    20
100
AcDbText
 10
352.0
 20
126.0
 30
0.0
 40
3.0
  1
滑車
 72
     5
 11
358.0
 21
126.0
 31
0.0
100
AcDbText
  0
LWPOLYLINE
  5
C1
330
18
100
AcDbEntity
  8
LEVEL001
  6
Continuous
 62
     3
370
    20
100
AcDbPolyline
 90
        5
 70
     0
 43
0.0
 10
93.685686242409
 20
196.47809797047
 10
93.685686242409
 20
192.90666939904
 10
93.471400528124
 20
165.0495265419
 10
93.471400528124
 20
139.33524082761
 10
94.328543385267
 20
139.33524082761
  0
LWPOLYLINE
  5
C2
330
18
100
AcDbEntity
  8
LEVEL001
  6
Continuous
 62
     3
370
    20
100
AcDbPolyline
 90
        5
 70
     0
 43
0.0
 10
94.971400528124
 20
196.47809797047
 10
94.971400528124
 20
192.90666939904
 10
95.185686242409
 20
165.0495265419
 10
95.185686242409
 20
139.33524082761
 10
94.328543385267
 20
139.33524082761
  0
LINE
  5
C3
330
18
100
AcDbEntity
  8
LEVEL001
  6
Continuous
 62
     3
370
    20
100
AcDbLine
 10
93.685686242409
 20
196.47809797047
 30
0.0
 11
94.971400528124
 21
196.47809797047
 31
0.0
  0
ARC
  5
C4
330
18
100
AcDbEntity
  8
LEVEL001
  6
Continuous
 62
     3
370
    20
100
AcDbCircle
 10
95.599971956695
 20
68.178097970471
 30
0.0
 40
0.61428571428571
100
AcDbArc
 50
0.0000000000012119
 51
89.999999999996
  0
LINE
  5
C5
330
18
100
AcDbEntity
  8
LEVEL001
  6
Continuous
 62
     3
370
    20
100
AcDbLine
 10
96.214257670981
 20
68.178097970471
 30
0.0
 11
96.214257670981
 21
67.906669399043
 31
0.0
  0
LINE
  5
C6
330
18
100
AcDbEntity
  8
LEVEL001
  6
Continuous
 62
     3
370
    20
100
AcDbLine
 10
94.328543385267
 20
68.792383684757
 30
0.0
 11
93.057114813838
 21
68.792383684757
 31
0.0
  0
ARC
  5
C7
330
18
100
AcDbEntity
  8
LEVEL001
  6
Continuous
 62
     3
370
    20
100
AcDbCircle
 10
93.057114813838
 20
68.178097970471
 30
0.0
 40
0.61428571428571
100
AcDbArc
 50
90.0
 51
180.0
  0
LINE
  5
C8
330
18
100
AcDbEntity
  8
LEVEL001
  6
Continuous
 62
     3
370
    20
100
AcDbLine
 10
92.442829099552
 20
68.178097970471
 30
0.0
 11
92.442829099552
 21
67.906669399043
 31
0.0
  0
LINE
  5
C9
330
18
100
AcDbEntity
  8
LEVEL001
  6
Continuous
 62
     3
370
    20
100
AcDbLine
 10
94.328543385267
 20
68.792383684757
 30
0.0
 11
95.599971956695
 21
68.792383684757
 31
0.0
  0
LINE
  5
CA
330
18
100
AcDbEntity
  8
LEVEL001
  6
Continuous
 62
     3
370
    20
100
AcDbLine
 10
92.442829099552
 20
67.906669399043
 30
0.0
 11
96.214257670981
 21
67.906669399043
 31
0.0
  0
LWPOLYLINE
  5
CB
330
18
100
AcDbEntity
  8
LEVEL001
  6
Continuous
 62
     3
370
    20
100
AcDbPolyline
 90
        4
 70
     0
 43
0.0
 10
95.507114813838
 20
68.792383684757
 10
95.507114813838
 20
93.978097970471
 10
95.185686242409
 20
135.76381225619
 10
95.185686242409
 20
139.33524082761
  0
LWPOLYLINE
  5
CC
330
18
100
AcDbEntity
  8
LEVEL001
  6
Continuous
 62
     3
370
    20
100
AcDbPolyline
 90
        4
 70
     0
 43
0.0
 10
93.149971956695
 20
68.792383684757
 10
93.149971956695
 20
93.978097970471
 10
93.471400528124
 20
135.76381225619
 10
93.471400528124
 20
139.33524082761
  0
LINE
  5
CD
330
18
100
AcDbEntity
  8
LEVEL001
  6
Continuous
 62
     3
370
    20
100
AcDbLine
 10
92.68568624241
 20
62.80113621883
 30
0.0
 11
89.328543385267
 21
60.86288888655
 31
0.0
  0
LINE
  5
CE
330
18
100
AcDbEntity
  8
LEVEL001
  6
Continuous
 62
     3
370
    20
100
AcDbLine
 10
92.68568624241
 20
62.553700389193
 30
0.0
 11
89.328543385267
 21
60.615453056913
 31
0.0
  0
LINE
  5
CF
330
18
100
AcDbEntity
  8
LEVEL001
  6
Continuous
 62
     3
370
    20
100
AcDbLine
 10
92.68568624241
 20
62.30626455954
 30
0.0
 11
89.328543385267
 21
60.36801722726
 31
0.0
  0
LINE
  5
D0
330
18
100
AcDbEntity
  8
LEVEL001
  6
Continuous
 62
     3
370
    20
100
AcDbLine
 10
99.328543385267
 20
66.636391578447
 30
0.0
 11
95.971400528124
 21
64.698144246167
 31
0.0
  0
LINE
  5
D1
330
18
100
AcDbEntity
  8
LEVEL001
  6
Continuous
 62
     3
370
    20
100
AcDbLine
 10
99.328543385267
 20
66.38895574881
 30
0.0
 11
95.971400528124
 21
64.45070841653
 31
0.0
  0
LINE
  5
D2
330
18
100
AcDbEntity
  8
LEVEL001
  6
Continuous
 62
     3
370
    20
100
AcDbLine
 10
99.328543385267
 20
66.141519919157
 30
0.0
 11
95.971400528124
 21
64.203272586878
 31
0.0
  0
LWPOLYLINE
  5
D3
330
18
100
AcDbEntity
  8
LEVEL001
  6
Continuous
 62
     3
370
    20
100
AcDbPolyline
 90
        3
 70
     0
 43
0.0
 10
94.328543385267
 20
53.620955113328
 10
95.507114813838
 20
53.620955113328
 10
95.507114813838
 20
67.906669399043
  0
LWPOLYLINE
  5
D4
330
18
100
AcDbEntity
  8
LEVEL001
  6
Continuous
 62
     3
370
    20
100
AcDbPolyline
 90
        3
 70
     0
 43
0.0
 10
94.328543385267
 20
53.620955113328
 10
93.149971956695
 20
53.620955113328
 10
93.149971956695
 20
67.906669399043
  0
LWPOLYLINE
  5
D5
330
18
100
AcDbEntity
  8
LEVEL001
  6
Continuous
 62
     3
370
    20
100
AcDbPolyline
 90
        4
 70
     0
 43
0.0
 10
89.328543385267
 20
53.620955113328
 10
89.328543385267
 20
67.906669399043
 10
99.328543385267
 20
67.906669399043
 10
99.328543385267
 20
53.620955113328
  0
LWPOLYLINE
  5
D6
330
18
100
AcDbEntity
  8
LEVEL001
  6
Continuous
 62
     3
370
    20
100
AcDbPolyline
 90
        4
 70
     0
 43
0.0
 10
94.542829099552
 20
53.620955113328
 10
94.542829099552
 20
51.478097970471
 10
94.114257670981
 20
51.478097970471
 10
94.114257670981
 20
53.620955113328
  0
LINE
  5
D7
330
18
100
AcDbEntity
  8
LEVEL001
  6
Continuous
 62
     3
370
    20
100
AcDbLine
 10
92.685686242409
 20
67.906669399043
 30
0.0
 11
92.685686242409
 21
53.620955113328
 31
0.0
  0
LINE
  5
D8
330
18
100
AcDbEntity
  8
LEVEL001
  6
Continuous
 62
     3
370
    20
100
AcDbLine
 10
95.971400528124
 20
53.620955113328
 30
0.0
 11
95.971400528124
 21
67.906669399043
 31
0.0
  0
LINE
  5
D9
330
18
100
AcDbEntity
  8
LEVEL001
  6
Continuous
 62
     3
370
    20
100
AcDbLine
 10
87.899971956695
 20
53.335240827614
 30
0.0
 11
94.114257670981
 21
53.335240827614
 31
0.0
  0
LINE
  5
DA
330
18
100
AcDbEntity
  8
LEVEL001
  6
Continuous
 62
     3
370
    20
100
AcDbLine
 10
94.542829099552
 20
53.335240827614
 30
0.0
 11
100.75711481384
 21
53.335240827614
 31
0.0
  0
LWPOLYLINE
  5
DB
330
18
100
AcDbEntity
  8
LEVEL001
  6
Continuous
 62
     3
370
    20
100
AcDbPolyline
 90
        6
 70
     0
 43
0.0
 10
94.542829099552
 20
52.192383684757
 10
100.75711481384
 20
52.192383684757
 10
100.75711481384
 20
53.620955113328
 10
87.899971956695
 20
53.620955113328
 10
87.899971956695
 20
52.192383684757
 10
94.114257670981
 20
52.192383684757
  0
LINE
  5
DC
330
18
100
AcDbEntity
  8
LEVEL001
  6
Continuous
 62
     3
370
    20
100
AcDbLine
 10
92.685686242411
 20
56.399432579027
 30
0.0
 11
89.328543385268
 21
54.461185246747
 31
0.0
  0
LINE
  5
DD
330
18
100
AcDbEntity
  8
LEVEL001
  6
Continuous
 62
     3
370
    20
100
AcDbLine
 10
92.685686242411
 20
56.151996749389
 30
0.0
 11
89.328543385268
 21
54.21374941711
 31
0.0
  0
LINE
  5
DE
330
18
100
AcDbEntity
  8
LEVEL001
  6
Continuous
 62
     3
370
    20
100
AcDbLine
 10
92.685686242411
 20
55.904560919737
 30
0.0
 11
89.328543385268
 21
53.966313587457
 31
0.0
  0
LINE
  5
DF
330
18
100
AcDbEntity
  8
LEVEL001
  6
Continuous
 62
     3
370
    20
100
AcDbLine
 10
99.328543385268
 20
60.234687938644
 30
0.0
 11
95.971400528125
 21
58.296440606364
 31
0.0
  0
LINE
  5
E0
330
18
100
AcDbEntity
  8
LEVEL001
  6
Continuous
 62
     3
370
    20
100
AcDbLine
 10
99.328543385268
 20
59.987252109007
 30
0.0
 11
95.971400528125
 21
58.049004776727
 31
0.0
  0
LINE
  5
E1
330
18
100
AcDbEntity
  8
LEVEL001
  6
Continuous
 62
     3
370
    20
100
AcDbLine
 10
99.328543385268
 20
59.739816279354
 30
0.0
 11
95.971400528125
 21
57.801568947074
 31
0.0
  0
LINE
  5
E2
330
18
100
AcDbEntity
  8
LEVEL001
  6
Continuous
 62
     3
370
    20
100
AcDbLine
 10
88.060415617497
 20
53.335240827614
 30
0.0
 11
88.292648682944
 21
52.954288446661
 31
0.0
  0
LINE
  5
E3
330
18
100
AcDbEntity
  8
LEVEL001
  6
Continuous
 62
     3
370
    20
100
AcDbLine
 10
88.488987046069
 20
53.335240827614
 30
0.0
 11
87.899971956695
 21
52.192383684757
 31
0.0
  0
LINE
  5
E4
330
18
100
AcDbEntity
  8
LEVEL001
  6
Continuous
 62
     3
370
    20
100
AcDbLine
 10
88.09631031982
 20
52.573336065709
 30
0.0
 11
88.328543385267
 21
52.192383684757
 31
0.0
  0
LINE
  5
E5
330
18
100
AcDbEntity
  8
LEVEL001
  6
Continuous
 62
     3
370
    20
100
AcDbLine
 10
90.203272760355
 20
53.335240827614
 30
0.0
 11
89.614257670981
 21
52.192383684757
 31
0.0
  0
LINE
  5
E6
330
18
100
AcDbEntity
  8
LEVEL001
  6
Continuous
 62
     3
370
    20
100
AcDbLine
 10
89.774701331783
 20
53.335240827614
 30
0.0
 11
90.00693439723
 21
52.954288446661
 31
0.0
  0
LINE
  5
E7
330
18
100
AcDbEntity
  8
LEVEL001
  6
Continuous
 62
     3
370
    20
100
AcDbLine
 10
91.91755847464
 20
53.335240827614
 30
0.0
 11
91.328543385267
 21
52.192383684757
 31
0.0
  0
LINE
  5
E8
330
18
100
AcDbEntity
  8
LEVEL001
  6
Continuous
 62
     3
370
    20
100
AcDbLine
 10
91.488987046069
 20
53.335240827614
 30
0.0
 11
91.721220111516
 21
52.954288446661
 31
0.0
  0
LINE
  5
E9
330
18
100
AcDbEntity
  8
LEVEL001
  6
Continuous
 62
     3
370
    20
100
AcDbLine
 10
89.810596034106
 20
52.573336065709
 30
0.0
 11
90.042829099552
 21
52.192383684757
 31
0.0
  0
LINE
  5
EA
330
18
100
AcDbEntity
  8
LEVEL001
  6
Continuous
 62
     3
370
    20
100
AcDbLine
 10
91.524881748391
 20
52.573336065709
 30
0.0
 11
91.757114813838
 21
52.192383684757
 31
0.0
  0
LINE
  5
EB
330
18
100
AcDbEntity
  8
LEVEL001
  6
Continuous
 62
     3
370
    20
100
AcDbLine
 10
93.631844188926
 20
53.335240827614
 30
0.0
 11
93.042829099552
 21
52.192383684757
 31
0.0
  0
LINE
  5
EC
330
18
100
AcDbEntity
  8
LEVEL001
  6
Continuous
 62
     3
370
    20
100
AcDbLine
 10
93.203272760355
 20
53.335240827614
 30
0.0
 11
93.435505825802
 21
52.954288446661
 31
0.0
  0
LINE
  5
ED
330
18
100
AcDbEntity
  8
LEVEL001
  6
Continuous
 62
     3
370
    20
100
AcDbLine
 10
93.239167462677
 20
52.573336065709
 30
0.0
 11
93.471400528124
 21
52.192383684757
 31
0.0
  0
LINE
  5
EE
330
18
100
AcDbEntity
  8
LEVEL001
  6
Continuous
 62
     3
370
    20
100
AcDbLine
 10
95.346129903212
 20
53.335240827614
 30
0.0
 11
94.757114813838
 21
52.192383684757
 31
0.0
  0
LINE
  5
EF
330
18
100
AcDbEntity
  8
LEVEL001
  6
Continuous
 62
     3
370
    20
100
AcDbLine
 10
94.91755847464
 20
53.335240827614
 30
0.0
 11
95.149791540087
 21
52.954288446661
 31
0.0
  0
LINE
  5
F0
330
18
100
AcDbEntity
  8
LEVEL001
  6
Continuous
 62
     3
370
    20
100
AcDbLine
 10
94.953453176963
 20
52.573336065709
 30
0.0
 11
95.18568624241
 21
52.192383684757
 31
0.0
  0
LINE
  5
F1
330
18
100
AcDbEntity
  8
LEVEL001
  6
Continuous
 62
     3
370
    20
100
AcDbLine
 10
97.058464797579
 20
53.335240827614
 30
0.0
 11
96.469449708205
 21
52.192383684757
 31
0.0
  0
LINE
  5
F2
330
18
100
AcDbEntity
  8
LEVEL001
  6
Continuous
 62
     3
370
    20
100
AcDbLine
 10
96.629893369007
 20
53.335240827614
 30
0.0
 11
96.862126434454
 21
52.954288446661
 31
0.0
  0
LINE
  5
F3
330
18
100
AcDbEntity
  8
LEVEL001
  6
Continuous
 62
     3
370
    20
100
AcDbLine
 10
96.665788071329
 20
52.573336065709
 30
0.0
 11
96.898021136776
 21
52.192383684757
 31
0.0
  0
LINE
  5
F4
330
18
100
AcDbEntity
  8
LEVEL001
  6
Continuous
 62
     3
370
    20
100
AcDbLine
 10
98.771035356403
 20
53.335240827614
 30
0.0
 11
98.18202026703
 21
52.192383684757
 31
0.0
  0
LINE
  5
F5
330
18
100
AcDbEntity
  8
LEVEL001
  6
Continuous
 62
     3
370
    20
100
AcDbLine
 10
98.342463927832
 20
53.335240827614
 30
0.0
 11
98.574696993279
 21
52.954288446661
 31
0.0
  0
LINE
  5
F6
330
18
100
AcDbEntity
  8
LEVEL001
  6
Continuous
 62
     3
370
    20
100
AcDbLine
 10
98.378358630154
 20
52.573336065709
 30
0.0
 11
98.610591695601
 21
52.192383684757
 31
0.0
  0
LINE
  5
F7
330
18
100
AcDbEntity
  8
LEVEL001
  6
Continuous
 62
     3
370
    20
100
AcDbLine
 10
100.48596645356
 20
53.335240827614
 30
0.0
 11
99.896951364185
 21
52.192383684757
 31
0.0
  0
LINE
  5
F8
330
18
100
AcDbEntity
  8
LEVEL001
  6
Continuous
 62
     3
370
    20
100
AcDbLine
 10
100.05739502499
 20
53.335240827614
 30
0.0
 11
100.28962809043
 21
52.954288446661
 31
0.0
  0
LINE
  5
F9
330
18
100
AcDbEntity
  8
LEVEL001
  6
Continuous
 62
     3
370
    20
100
AcDbLine
 10
100.09328972731
 20
52.573336065709
 30
0.0
 11
100.32552279276
 21
52.192383684757
 31
0.0
  0
TEXT
  5
FA
330
18
100
AcDbEntity
  8
LEVEL001
 62
     3
370
    20
100
AcDbText
 10
102.71306678122
 20
140.67139728942
 30
0.0
 40
4.0
  1
ｔ３．０
 41
0.875
 72
     5
 11
116.71306678122
 21
140.67139728942
 31
0.0
100
AcDbText
  0
TEXT
  5
FB
330
18
100
AcDbEntity
  8
LEVEL001
 62
     3
370
    20
100
AcDbText
 10
103.98866048809
 20
96.025617549001
 30
0.0
 40
4.0
  1
ｔ４．０
 41
0.875
 72
     5
 11
117.98866048809
 21
96.025617549001
 31
0.0
100
AcDbText
  0
TEXT
  5
FC
330
18
100
AcDbEntity
  8
LEVEL001
 62
     3
370
    20
100
AcDbText
 10
100.2456723564
 20
197.86627089597
 30
0.0
 40
4.0
  1
ｔ３．０
 41
0.875
 72
     5
 11
114.2456723564
 21
197.86627089597
 31
0.0
100
AcDbText
  0
LINE
  5
FD
330
18
100
AcDbEntity
  8
LEVEL001
  6
Continuous
 62
     3
370
    20
100
AcDbLine
 10
34.879450352954
 20
25.116821666617
 30
0.0
 11
62.657228130731
 21
25.116821666617
 31
0.0
  0
LWPOLYLINE
  5
FE
330
18
100
AcDbEntity
  8
LEVEL001
  6
Continuous
 62
     3
370
    20
100
AcDbPolyline
 90
        5
 70
     0
 43
0.0
 10
93.685686242409
 20
196.47809797047
 10
93.685686242409
 20
236.12095511332
 10
93.792829099552
 20
250.04952654189
 10
93.792829099552
 20
253.62095511333
 10
94.328543385267
 20
253.62095511332
  0
LWPOLYLINE
  5
FF
330
18
100
AcDbEntity
  8
LEVEL001
  6
Continuous
 62
     3
370
    20
100
AcDbPolyline
 90
        5
 70
     0
 43
0.0
 10
94.971400528124
 20
196.47809797047
 10
94.971400528124
 20
236.12095511332
 10
94.864257670981
 20
250.04952654189
 10
94.864257670981
 20
253.62095511333
 10
94.328543385267
 20
253.62095511332
  0
LINE
  5
100
330
18
100
AcDbEntity
  8
LEVEL001
  6
DASHDOT
 62
     1
370
    15
100
AcDbLine
 10
94.328543385267
 20
256.5410336865
 30
0.0
 11
94.328543385267
 21
46.496559846704
 31
0.0
  0
TEXT
  5
101
330
18
100
AcDbEntity
  8
LEVEL001
 62
     3
370
    20
100
AcDbText
 10
356.6
 20
81.0
 30
0.0
 40
3.0
  1
１：５　１：７０
 72
     5
 11
380.6
 21
81.0
 31
0.0
100
AcDbText
  0
TEXT
  5
102
330
18
100
AcDbEntity
  8
LEVEL001
 62
     3
370
    20
100
AcDbText
 10
356.6
 20
41.0
 30
0.0
 40
4.0
  1
１３ＦＰ－Ｕｚｘ
 72
     5
 11
388.6
 21
41.0
 31
0.0
100
AcDbText
  0
TEXT
  5
103
330
18
100
AcDbEntity
  8
LEVEL001
 62
     3
370
    20
100
AcDbText
 10
356.6
 20
21.109792452098
 30
0.0
 40
4.0
  1
ＦＰ１３０Ｕｚｘ
 72
     5
 11
388.6
 21
21.109792452098
 31
0.0
100
AcDbText
  0
TEXT
  5
104
330
18
100
AcDbEntity
  8
LEVEL001
 62
     3
370
    20
100
AcDbText
 10
354.0
 20
12.0
 30
0.0
 40
6.0
  1
株式会社ＳＤＡＴ
 72
     5
 11
402.0
 21
12.0
 31
0.0
100
AcDbText
  0
TEXT
  5
105
330
18
100
AcDbEntity
  8
LEVEL001
 62
     3
370
    20
100
AcDbText
 10
387.0
 20
116.0
 30
0.0
 40
3.0
  1
Ａ６０６３－Ｔ６
 41
0.66666666666667
 72
     5
 11
403.0
 21
116.0
 31
0.0
100
AcDbText
  0
TEXT
  5
106
330
18
100
AcDbEntity
  8
LEVEL001
 62
     3
370
    20
100
AcDbText
 10
387.0
 20
111.0
 30
0.0
 40
3.0
  1
Ａ６０６３－Ｔ６
 41
0.66666666666667
 72
     5
 11
403.0
 21
111.0
 31
0.0
100
AcDbText
  0
TEXT
  5
107
330
18
100
AcDbEntity
  8
LEVEL001
 62
     3
370
    20
100
AcDbText
 10
387.0
 20
106.0
 30
0.0
 40
3.0
  1
Ａ６０６３－Ｔ６
 41
0.66666666666667
 72
     5
 11
403.0
 21
106.0
 31
0.0
100
AcDbText
  0
LINE
  5
108
330
18
100
AcDbEntity
  8
LEVEL001
  6
Continuous
 62
     1
370
    15
100
AcDbLine
 10
94.885614090497
 20
140.74945438999
 30
0.0
 11
101.43669940427
 21
147.30053970376
 31
0.0
  0
LINE
  5
109
330
18
100
AcDbEntity
  8
LEVEL001
  6
Continuous
 62
     1
370
    15
100
AcDbLine
 10
96.599899804783
 20
140.74945438999
 30
0.0
 11
103.15098511855
 21
147.30053970376
 31
0.0
  0
LINE
  5
10A
330
18
100
AcDbEntity
  8
LEVEL001
  6
Continuous
 62
     1
370
    15
100
AcDbLine
 10
96.272485841893
 20
145.88632614138
 30
0.0
 11
100.87962869904
 21
145.88632614138
 31
0.0
  0
LINE
  5
10B
330
18
100
AcDbEntity
  8
LEVEL001
  6
Continuous
 62
     1
370
    15
100
AcDbLine
 10
118.56956809908
 20
145.88632614138
 30
0.0
 11
100.87962869904
 21
145.88632614138
 31
0.0
  0
LINE
  5
10C
330
18
100
AcDbEntity
  8
LEVEL001
  6
Continuous
 62
     1
370
    15
100
AcDbLine
 10
100.02248584189
 20
145.88632614138
 30
0.0
 11
97.022485841893
 21
146.69017371868
 31
0.0
  0
LINE
  5
10D
330
18
100
AcDbEntity
  8
LEVEL001
  6
Continuous
 62
     1
370
    15
100
AcDbLine
 10
100.02248584189
 20
145.88632614138
 30
0.0
 11
97.022485841893
 21
145.08247856409
 31
0.0
  0
LINE
  5
10E
330
18
100
AcDbEntity
  8
LEVEL001
  6
Continuous
 62
     1
370
    15
100
AcDbLine
 10
101.73677155618
 20
145.88632614138
 30
0.0
 11
104.73677155618
 21
145.08247856409
 31
0.0
  0
LINE
  5
10F
330
18
100
AcDbEntity
  8
LEVEL001
  6
Continuous
 62
     1
370
    15
100
AcDbLine
 10
101.73677155618
 20
145.88632614138
 30
0.0
 11
104.73677155618
 21
146.69017371868
 31
0.0
  0
MTEXT
  5
110
330
18
100
AcDbEntity
  8
LEVEL001
 62
     3
370
    20
100
AcDbMText
 10
104.56956809908
 20
147.60061185567
 30
0.0
 40
4.0
 41
0.0
 71
     7
 72
     1
  1
\A1;%%c120
 73
     1
 44
1.0
  0
LINE
  5
111
330
18
100
AcDbEntity
  8
LEVEL001
  6
Continuous
 62
     1
370
    15
100
AcDbLine
 10
95.099899804783
 20
197.89231153284
 30
0.0
 11
101.58523276767
 21
204.37764449573
 31
0.0
  0
LINE
  5
112
330
18
100
AcDbEntity
  8
LEVEL001
  6
Continuous
 62
     1
370
    15
100
AcDbLine
 10
96.385614090497
 20
197.89231153284
 30
0.0
 11
102.87094705339
 21
204.37764449573
 31
0.0
  0
LINE
  5
113
330
18
100
AcDbEntity
  8
LEVEL001
  6
Continuous
 62
     1
370
    15
100
AcDbLine
 10
96.4210192053
 20
202.96343093336
 30
0.0
 11
100.81387634816
 21
202.96343093336
 31
0.0
  0
LINE
  5
114
330
18
100
AcDbEntity
  8
LEVEL001
  6
Continuous
 62
     1
370
    15
100
AcDbLine
 10
114.22804525059
 20
202.96343093336
 30
0.0
 11
100.81387634816
 21
202.96343093336
 31
0.0
  0
LINE
  5
115
330
18
100
AcDbEntity
  8
LEVEL001
  6
Continuous
 62
     1
370
    15
100
AcDbLine
 10
100.1710192053
 20
202.96343093336
 30
0.0
 11
97.1710192053
 21
203.76727851065
 31
0.0
  0
LINE
  5
116
330
18
100
AcDbEntity
  8
LEVEL001
  6
Continuous
 62
     1
370
    15
100
AcDbLine
 10
100.1710192053
 20
202.96343093336
 30
0.0
 11
97.1710192053
 21
202.15958335607
 31
0.0
  0
LINE
  5
117
330
18
100
AcDbEntity
  8
LEVEL001
  6
Continuous
 62
     1
370
    15
100
AcDbLine
 10
101.45673349101
 20
202.96343093336
 30
0.0
 11
104.45673349101
 21
202.15958335607
 31
0.0
  0
LINE
  5
118
330
18
100
AcDbEntity
  8
LEVEL001
  6
Continuous
 62
     1
370
    15
100
AcDbLine
 10
101.45673349101
 20
202.96343093336
 30
0.0
 11
104.45673349101
 21
203.76727851065
 31
0.0
  0
MTEXT
  5
119
330
18
100
AcDbEntity
  8
LEVEL001
 62
     3
370
    20
100
AcDbMText
 10
103.72804525059
 20
204.67771664765
 30
0.0
 40
4.0
 41
0.0
 71
     7
 72
     1
  1
\A1;%%c90
 73
     1
 44
1.0
  0
LINE
  5
11A
330
18
100
AcDbEntity
  8
LEVEL001
  6
Continuous
 62
     1
370
    15
100
AcDbLine
 10
93.7877163587
 20
166.81866664063
 30
0.0
 11
84.977721940806
 21
172.44444999042
 31
0.0
  0
CIRCLE
  5
11B
330
18
100
AcDbEntity
  8
LEVEL001
  6
Continuous
 62
     1
370
    15
100
AcDbCircle
 10
81.606446667662
 20
174.59723958364
 30
0.0
 40
4.0
  0
LINE
  5
11C
330
18
100
AcDbEntity
  8
LEVEL001
  6
Continuous
 62
     1
370
    15
100
AcDbLine
 10
93.7877163587
 20
166.81866664063
 30
0.0
 11
91.691888578577
 21
169.11075670072
 31
0.0
  0
LINE
  5
11D
330
18
100
AcDbEntity
  8
LEVEL001
  6
Continuous
 62
     1
370
    15
100
AcDbLine
 10
93.7877163587
 20
166.81866664063
 30
0.0
 11
90.826631229109
 21
167.75576097037
 31
0.0
  0
MTEXT
  5
11E
330
18
100
AcDbEntity
  8
LEVEL001
 62
     3
370
    20
100
AcDbMText
 10
77.81171347546
 20
173.33232851957
 30
0.0
 40
2.5298221281347
 41
0.0
 71
     7
 72
     1
  1
\A1;１－２
 73
     1
 44
1.0
  0
LINE
  5
11F
330
18
100
AcDbEntity
  8
LEVEL001
  6
Continuous
 62
     1
370
    15
100
AcDbLine
 10
93.257114813838
 20
113.56318110698
 30
0.0
 11
85.099474938136
 21
118.594201919
 31
0.0
  0
CIRCLE
  5
120
330
18
100
AcDbEntity
  8
LEVEL001
  6
Continuous
 62
     1
370
    15
100
AcDbCircle
 10
81.694880258472
 20
120.69390072292
 30
0.0
 40
4.0
  0
LINE
  5
121
330
18
100
AcDbEntity
  8
LEVEL001
  6
Continuous
 62
     1
370
    15
100
AcDbLine
 10
93.257114813838
 20
113.56318110698
 30
0.0
 11
91.125628253236
 21
115.82214900615
 31
0.0
  0
LINE
  5
122
330
18
100
AcDbEntity
  8
LEVEL001
  6
Continuous
 62
     1
370
    15
100
AcDbLine
 10
93.257114813838
 20
113.56318110698
 30
0.0
 11
90.281709354945
 21
114.45376141369
 31
0.0
  0
MTEXT
  5
123
330
18
100
AcDbEntity
  8
LEVEL001
 62
     3
370
    20
100
AcDbMText
 10
77.90014706627
 20
119.42898965885
 30
0.0
 40
2.5298221281347
 41
0.0
 71
     7
 72
     1
  1
\A1;１－１
 73
     1
 44
1.0
  0
LINE
  5
124
330
18
100
AcDbEntity
  8
LEVEL001
  6
Continuous
 62
     1
370
    15
100
AcDbLine
 10
93.7877163587
 20
208.63980835185
 30
0.0
 11
85.018615437224
 21
214.00423785145
 31
0.0
  0
CIRCLE
  5
125
330
18
100
AcDbEntity
  8
LEVEL001
  6
Continuous
 62
     1
370
    15
100
AcDbCircle
 10
81.606446667661
 20
216.0916056408
 30
0.0
 40
4.0
  0
LINE
  5
126
330
18
100
AcDbEntity
  8
LEVEL001
  6
Continuous
 62
     1
370
    15
100
AcDbLine
 10
93.7877163587
 20
208.63980835185
 30
0.0
 11
91.648071166626
 21
210.89105009354
 31
0.0
  0
LINE
  5
127
330
18
100
AcDbEntity
  8
LEVEL001
  6
Continuous
 62
     1
370
    15
100
AcDbLine
 10
93.7877163587
 20
208.63980835185
 30
0.0
 11
90.809108396431
 21
209.51961829418
 31
0.0
  0
MTEXT
  5
128
330
18
100
AcDbEntity
  8
LEVEL001
 62
     3
370
    20
100
AcDbMText
 10
77.811713475459
 20
214.82669457673
 30
0.0
 40
2.5298221281347
 41
0.0
 71
     7
 72
     1
  1
\A1;１－３
 73
     1
 44
1.0
  0
LINE
  5
129
330
18
100
AcDbEntity
  8
LEVEL001
  6
Continuous
 62
     1
370
    15
100
AcDbLine
 10
92.496175990789
 20
68.428486819207
 30
0.0
 11
84.662464401362
 21
75.523541967211
 31
0.0
  0
CIRCLE
  5
12A
330
18
100
AcDbEntity
  8
LEVEL001
  6
Continuous
 62
     1
370
    15
100
AcDbCircle
 10
81.697717137271
 20
78.208737241314
 30
0.0
 40
4.0
  0
LINE
  5
12B
330
18
100
AcDbEntity
  8
LEVEL001
  6
Continuous
 62
     1
370
    15
100
AcDbLine
 10
92.496175990789
 20
68.428486819207
 30
0.0
 11
90.812237471632
 21
71.038184501166
 31
0.0
  0
LINE
  5
12C
330
18
100
AcDbEntity
  8
LEVEL001
  6
Continuous
 62
     1
370
    15
100
AcDbLine
 10
92.496175990789
 20
68.428486819207
 30
0.0
 11
89.732993613809
 21
69.846582048403
 31
0.0
  0
MTEXT
  5
12D
330
18
100
AcDbEntity
  8
LEVEL001
 62
     3
370
    20
100
AcDbMText
 10
78.869290012525
 20
75.380310116568
 30
0.0
 40
5.6568542494924
 41
0.0
 71
     7
 72
     1
  1
\A1;５
 73
     1
 44
1.0
  0
LINE
  5
12E
330
18
100
AcDbEntity
  8
LEVEL001
  6
Continuous
 62
     1
370
    15
100
AcDbLine
 10
89.328543385267
 20
51.620955113328
 30
0.0
 11
89.328543385267
 21
40.637141157001
 31
0.0
  0
LINE
  5
12F
330
18
100
AcDbEntity
  8
LEVEL001
  6
Continuous
 62
     1
370
    15
100
AcDbLine
 10
99.328543385267
 20
51.620955113328
 30
0.0
 11
99.328543385267
 21
40.637141157001
 31
0.0
  0
LINE
  5
130
330
18
100
AcDbEntity
  8
LEVEL001
  6
Continuous
 62
     1
370
    15
100
AcDbLine
 10
73.584051842841
 20
42.637141157001
 30
0.0
 11
94.328543385267
 21
42.637141157001
 31
0.0
  0
LINE
  5
131
330
18
100
AcDbEntity
  8
LEVEL001
  6
Continuous
 62
     1
370
    15
100
AcDbLine
 10
99.328543385267
 20
42.637141157001
 30
0.0
 11
94.328543385267
 21
42.637141157001
 31
0.0
  0
LINE
  5
132
330
18
100
AcDbEntity
  8
LEVEL001
  6
Continuous
 62
     1
370
    15
100
AcDbLine
 10
89.328543385267
 20
42.637141157001
 30
0.0
 11
92.328543385267
 21
41.833293579707
 31
0.0
  0
LINE
  5
133
330
18
100
AcDbEntity
  8
LEVEL001
  6
Continuous
 62
     1
370
    15
100
AcDbLine
 10
89.328543385267
 20
42.637141157001
 30
0.0
 11
92.328543385267
 21
43.440988734294
 31
0.0
  0
LINE
  5
134
330
18
100
AcDbEntity
  8
LEVEL001
  6
Continuous
 62
     1
370
    15
100
AcDbLine
 10
99.328543385267
 20
42.637141157001
 30
0.0
 11
96.328543385267
 21
43.440988734294
 31
0.0
  0
LINE
  5
135
330
18
100
AcDbEntity
  8
LEVEL001
  6
Continuous
 62
     1
370
    15
100
AcDbLine
 10
99.328543385267
 20
42.637141157001
 30
0.0
 11
96.328543385267
 21
41.833293579707
 31
0.0
  0
MTEXT
  5
136
330
18
100
AcDbEntity
  8
LEVEL001
 62
     3
370
    20
100
AcDbMText
 10
87.584051842841
 20
44.351426871286
 30
0.0
 40
4.0
 41
0.0
 71
     9
 72
     1
  1
\A1;□700
 73
     1
 44
1.0
  0
LINE
  5
137
330
18
100
AcDbEntity
  8
LEVEL001
  6
Continuous
 62
     1
370
    15
100
AcDbLine
 10
87.899971956695
 20
50.192383684757
 30
0.0
 11
87.899971956695
 21
33.650381502381
 31
0.0
  0
LINE
  5
138
330
18
100
AcDbEntity
  8
LEVEL001
  6
Continuous
 62
     1
370
    15
100
AcDbLine
 10
100.75711481384
 20
50.192383684757
 30
0.0
 11
100.75711481384
 21
33.650381502381
 31
0.0
  0
LINE
  5
139
330
18
100
AcDbEntity
  8
LEVEL001
  6
Continuous
 62
     1
370
    15
100
AcDbLine
 10
72.481995123718
 20
35.650381502381
 30
0.0
 11
94.328543385267
 21
35.650381502381
 31
0.0
  0
LINE
  5
13A
330
18
100
AcDbEntity
  8
LEVEL001
  6
Continuous
 62
     1
370
    15
100
AcDbLine
 10
100.75711481384
 20
35.650381502381
 30
0.0
 11
94.328543385267
 21
35.650381502381
 31
0.0
  0
LINE
  5
13B
330
18
100
AcDbEntity
  8
LEVEL001
  6
Continuous
 62
     1
370
    15
100
AcDbLine
 10
87.899971956695
 20
35.650381502381
 30
0.0
 11
90.899971956695
 21
34.846533925088
 31
0.0
  0
LINE
  5
13C
330
18
100
AcDbEntity
  8
LEVEL001
  6
Continuous
 62
     1
370
    15
100
AcDbLine
 10
87.899971956695
 20
35.650381502381
 30
0.0
 11
90.899971956695
 21
36.454229079675
 31
0.0
  0
LINE
  5
13D
330
18
100
AcDbEntity
  8
LEVEL001
  6
Continuous
 62
     1
370
    15
100
AcDbLine
 10
100.75711481384
 20
35.650381502381
 30
0.0
 11
97.757114813838
 21
36.454229079675
 31
0.0
  0
LINE
  5
13E
330
18
100
AcDbEntity
  8
LEVEL001
  6
Continuous
 62
     1
370
    15
100
AcDbLine
 10
100.75711481384
 20
35.650381502381
 30
0.0
 11
97.757114813838
 21
34.846533925088
 31
0.0
  0
MTEXT
  5
13F
330
18
100
AcDbEntity
  8
LEVEL001
 62
     3
370
    20
100
AcDbMText
 10
86.481995123718
 20
37.364667216667
 30
0.0
 40
4.0
 41
0.0
 71
     9
 72
     1
  1
\A1;□900
 73
     1
 44
1.0
  0
POLYLINE
  5
140
330
18
100
AcDbEntity
  8
LEVEL001
  6
Continuous
 62
     1
370
    15
100
AcDb2dPolyline
 66
     1
 10
0.0
 20
0.0
 30
0.0
  0
VERTEX
  5
141
330
140
100
AcDbEntity
  8
LEVEL001
  6
Continuous
 62
     1
100
AcDbVertex
100
AcDb2dVertex
 10
96.99939622153
 20
66.455677040227
 30
0.0
  0
VERTEX
  5
142
330
140
100
AcDbEntity
  8
LEVEL001
  6
Continuous
 62
     1
100
AcDbVertex
100
AcDb2dVertex
 10
104.73216891642
 20
58.625021146663
 30
0.0
  0
VERTEX
  5
143
330
140
100
AcDbEntity
  8
LEVEL001
  6
Continuous
 62
     1
100
AcDbVertex
100
AcDb2dVertex
 10
132.73216891642
 20
58.625021146663
 30
0.0
  0
SEQEND
  5
144
330
140
100
AcDbEntity
  8
LEVEL001
  6
Continuous
 62
     1
  0
LINE
  5
145
330
18
100
AcDbEntity
  8
LEVEL001
  6
Continuous
 62
     1
370
    15
100
AcDbLine
 10
96.99939622153
 20
66.455677040227
 30
0.0
 11
98.535363596203
 21
63.756237255482
 31
0.0
  0
LINE
  5
146
330
18
100
AcDbEntity
  8
LEVEL001
  6
Continuous
 62
     1
370
    15
100
AcDbLine
 10
96.99939622153
 20
66.455677040227
 30
0.0
 11
99.679302879753
 21
64.885877297988
 31
0.0
  0
MTEXT
  5
147
102
{ACAD_REACTORS
330
146
102
}
330
18
100
AcDbEntity
  8
LEVEL001
 62
     3
370
    20
100
AcDbMText
 10
104.73216891642
 20
60.339306860949
 30
0.0
 40
4.0
 41
0.0
 71
     7
 72
     1
  1
\A1;基礎コンクリート
 73
     1
 44
1.0
  0
LINE
  5
148
330
18
100
AcDbEntity
  8
LEVEL001
  6
Continuous
 62
     1
370
    15
100
AcDbLine
 10
85.899971956695
 20
52.192383684757
 30
0.0
 11
35.810623537737
 21
52.192383684757
 31
0.0
  0
LINE
  5
149
330
18
100
AcDbEntity
  8
LEVEL001
  6
Continuous
 62
     1
370
    15
100
AcDbLine
 10
85.899971956697
 20
53.620955113328
 30
0.0
 11
35.810623537737
 21
53.620955113328
 31
0.0
  0
LINE
  5
14A
330
18
100
AcDbEntity
  8
LEVEL001
  6
Continuous
 62
     1
370
    15
100
AcDbLine
 10
37.810623537737
 20
41.313571324043
 30
0.0
 11
37.810623537737
 21
52.906669399042
 31
0.0
  0
LINE
  5
14B
330
18
100
AcDbEntity
  8
LEVEL001
  6
Continuous
 62
     1
370
    15
100
AcDbLine
 10
37.810623537737
 20
57.370955113328
 30
0.0
 11
37.810623537737
 21
52.906669399042
 31
0.0
  0
LINE
  5
14C
330
18
100
AcDbEntity
  8
LEVEL001
  6
Continuous
 62
     1
370
    15
100
AcDbLine
 10
37.810623537737
 20
52.192383684757
 30
0.0
 11
37.006775960444
 21
49.192383684757
 31
0.0
  0
LINE
  5
14D
330
18
100
AcDbEntity
  8
LEVEL001
  6
Continuous
 62
     1
370
    15
100
AcDbLine
 10
37.810623537737
 20
52.192383684757
 30
0.0
 11
38.614471115031
 21
49.192383684757
 31
0.0
  0
LINE
  5
14E
330
18
100
AcDbEntity
  8
LEVEL001
  6
Continuous
 62
     1
370
    15
100
AcDbLine
 10
37.810623537737
 20
53.620955113328
 30
0.0
 11
38.614471115031
 21
56.620955113328
 31
0.0
  0
LINE
  5
14F
330
18
100
AcDbEntity
  8
LEVEL001
  6
Continuous
 62
     1
370
    15
100
AcDbLine
 10
37.810623537737
 20
53.620955113328
 30
0.0
 11
37.006775960444
 21
56.620955113328
 31
0.0
  0
MTEXT
  5
150
330
18
100
AcDbEntity
  8
LEVEL001
 62
     3
370
    20
100
AcDbMText
 10
36.096337823452
 20
51.813571324043
 30
0.0
 40
4.0
 41
0.0
 71
     9
 72
     1
  1
\A1;100
 11
0.0
 21
1.0
 31
0.0
 73
     1
 44
1.0
  0
LINE
  5
151
330
18
100
AcDbEntity
  8
LEVEL001
  6
Continuous
 62
     1
370
    15
100
AcDbLine
 10
91.471400528124
 20
139.33524082761
 30
0.0
 11
48.828258221681
 21
139.33524082761
 31
0.0
  0
LINE
  5
152
330
18
100
AcDbEntity
  8
LEVEL001
  6
Continuous
 62
     1
370
    15
100
AcDbLine
 10
91.685686242409
 20
196.47809797047
 30
0.0
 11
48.828258221681
 21
196.47809797047
 31
0.0
  0
LINE
  5
153
330
18
100
AcDbEntity
  8
LEVEL001
  6
Continuous
 62
     1
370
    15
100
AcDbLine
 10
50.828258221681
 20
139.33524082761
 30
0.0
 11
50.828258221681
 21
167.90666939904
 31
0.0
  0
LINE
  5
154
330
18
100
AcDbEntity
  8
LEVEL001
  6
Continuous
 62
     1
370
    15
100
AcDbLine
 10
50.828258221681
 20
196.47809797047
 30
0.0
 11
50.828258221681
 21
167.90666939904
 31
0.0
  0
LINE
  5
155
330
18
100
AcDbEntity
  8
LEVEL001
  6
Continuous
 62
     1
370
    15
100
AcDbLine
 10
50.828258221681
 20
139.33524082761
 30
0.0
 11
51.632105798974
 21
142.33524082761
 31
0.0
  0
LINE
  5
156
330
18
100
AcDbEntity
  8
LEVEL001
  6
Continuous
 62
     1
370
    15
100
AcDbLine
 10
50.828258221681
 20
139.33524082761
 30
0.0
 11
50.024410644387
 21
142.33524082761
 31
0.0
  0
LINE
  5
157
330
18
100
AcDbEntity
  8
LEVEL001
  6
Continuous
 62
     1
370
    15
100
AcDbLine
 10
50.828258221681
 20
196.47809797047
 30
0.0
 11
50.024410644387
 21
193.47809797047
 31
0.0
  0
LINE
  5
158
330
18
100
AcDbEntity
  8
LEVEL001
  6
Continuous
 62
     1
370
    15
100
AcDbLine
 10
50.828258221681
 20
196.47809797047
 30
0.0
 11
51.632105798974
 21
193.47809797047
 31
0.0
  0
MTEXT
  5
159
330
18
100
AcDbEntity
  8
LEVEL001
 62
     3
370
    20
100
AcDbMText
 10
49.113972507395
 20
167.90666939904
 30
0.0
 40
4.0
 41
0.0
 71
     8
 72
     1
  1
\A1;(4000)
 11
0.0
 21
1.0
 31
0.0
 73
     1
 44
1.0
  0
POLYLINE
  5
15A
330
18
100
AcDbEntity
  8
LEVEL001
  6
Continuous
 62
     1
370
    15
100
AcDb2dPolyline
 66
     1
 10
0.0
 20
0.0
 30
0.0
  0
VERTEX
  5
15B
330
15A
100
AcDbEntity
  8
LEVEL001
  6
Continuous
 62
     1
100
AcDbVertex
100
AcDb2dVertex
 10
94.542829099554
 20
51.478097970471
 30
0.0
  0
VERTEX
  5
15C
330
15A
100
AcDbEntity
  8
LEVEL001
  6
Continuous
 62
     1
100
AcDbVertex
100
AcDb2dVertex
 10
106.14224505631
 20
35.967420379473
 30
0.0
  0
VERTEX
  5
15D
330
15A
100
AcDbEntity
  8
LEVEL001
  6
Continuous
 62
     1
100
AcDbVertex
100
AcDb2dVertex
 10
127.34903165325
 20
35.967420379473
 30
0.0
  0
SEQEND
  5
15E
330
15A
100
AcDbEntity
  8
LEVEL001
  6
Continuous
 62
     1
  0
LINE
  5
15F
330
18
100
AcDbEntity
  8
LEVEL001
  6
Continuous
 62
     1
370
    15
100
AcDbLine
 10
94.542829099554
 20
51.478097970471
 30
0.0
 11
95.695750661808
 21
48.594186945698
 31
0.0
  0
LINE
  5
160
330
18
100
AcDbEntity
  8
LEVEL001
  6
Continuous
 62
     1
370
    15
100
AcDbLine
 10
94.542829099554
 20
51.478097970471
 30
0.0
 11
96.983243973423
 21
49.55701854189
 31
0.0
  0
MTEXT
  5
161
102
{ACAD_REACTORS
330
160
102
}
330
18
100
AcDbEntity
  8
LEVEL001
 62
     3
370
    20
100
AcDbMText
 10
106.34903165325
 20
37.681706093758
 30
0.0
 40
4.0
 41
0.0
 71
     7
 72
     1
  1
\A1;水抜きパイプ
 73
     1
 44
1.0
  0
POLYLINE
  5
162
330
18
100
AcDbEntity
  8
LEVEL001
  6
Continuous
 62
     1
370
    15
100
AcDb2dPolyline
 66
     1
 10
0.0
 20
0.0
 30
0.0
  0
VERTEX
  5
163
330
162
100
AcDbEntity
  8
LEVEL001
  6
Continuous
 62
     1
100
AcDbVertex
100
AcDb2dVertex
 10
99.629852248477
 20
52.764780474501
 30
0.0
  0
VERTEX
  5
164
330
162
100
AcDbEntity
  8
LEVEL001
  6
Continuous
 62
     1
100
AcDbVertex
100
AcDb2dVertex
 10
106.90012180268
 20
44.398799182839
 30
0.0
  0
VERTEX
  5
165
330
162
100
AcDbEntity
  8
LEVEL001
  6
Continuous
 62
     1
100
AcDbVertex
100
AcDb2dVertex
 10
117.51689285135
 20
44.398799182839
 30
0.0
  0
SEQEND
  5
166
330
162
100
AcDbEntity
  8
LEVEL001
  6
Continuous
 62
     1
  0
LINE
  5
167
330
18
100
AcDbEntity
  8
LEVEL001
  6
Continuous
 62
     1
370
    15
100
AcDbLine
 10
99.629852248477
 20
52.764780474501
 30
0.0
 11
100.99094594388
 21
49.973079401702
 31
0.0
  0
LINE
  5
168
330
18
100
AcDbEntity
  8
LEVEL001
  6
Continuous
 62
     1
370
    15
100
AcDbLine
 10
99.629852248477
 20
52.764780474501
 30
0.0
 11
102.20444450202
 21
51.027643273385
 31
0.0
  0
MTEXT
  5
169
102
{ACAD_REACTORS
330
168
102
}
330
18
100
AcDbEntity
  8
LEVEL001
 62
     3
370
    20
100
AcDbMText
 10
107.01689285135
 20
46.113084897125
 30
0.0
 40
4.0
 41
0.0
 71
     7
 72
     1
  1
\A1;割栗石
 73
     1
 44
1.0
  0
POLYLINE
  5
16A
330
18
100
AcDbEntity
  8
LEVEL001
  6
Continuous
 62
     1
370
    15
100
AcDb2dPolyline
 66
     1
 10
0.0
 20
0.0
 30
0.0
  0
VERTEX
  5
16B
330
16A
100
AcDbEntity
  8
LEVEL001
  6
Continuous
 62
     1
100
AcDbVertex
100
AcDb2dVertex
 10
95.727726736922
 20
62.300729398906
 30
0.0
  0
VERTEX
  5
16C
330
16A
100
AcDbEntity
  8
LEVEL001
  6
Continuous
 62
     1
100
AcDbVertex
100
AcDb2dVertex
 10
106.04751046301
 20
51.503893680058
 30
0.0
  0
VERTEX
  5
16D
330
16A
100
AcDbEntity
  8
LEVEL001
  6
Continuous
 62
     1
100
AcDbVertex
100
AcDb2dVertex
 10
130.54751046301
 20
51.503893680058
 30
0.0
  0
SEQEND
  5
16E
330
16A
100
AcDbEntity
  8
LEVEL001
  6
Continuous
 62
     1
  0
LINE
  5
16F
330
18
100
AcDbEntity
  8
LEVEL001
  6
Continuous
 62
     1
370
    15
100
AcDbLine
 10
95.727726736922
 20
62.300729398906
 30
0.0
 11
97.219495951021
 21
59.576615682596
 31
0.0
  0
LINE
  5
170
330
18
100
AcDbEntity
  8
LEVEL001
  6
Continuous
 62
     1
370
    15
100
AcDbLine
 10
95.727726736922
 20
62.300729398906
 30
0.0
 11
98.38169363107
 21
60.687462324833
 31
0.0
  0
MTEXT
  5
171
102
{ACAD_REACTORS
330
170
102
}
330
18
100
AcDbEntity
  8
LEVEL001
 62
     3
370
    20
100
AcDbMText
 10
106.04751046301
 20
53.218179394344
 30
0.0
 40
4.0
 41
0.0
 71
     7
 72
     1
  1
\A1;埋込部黒色塗装
 73
     1
 44
1.0
  0
LINE
  5
172
330
18
100
AcDbEntity
  8
LEVEL001
  6
Continuous
 62
     1
370
    15
100
AcDbLine
 10
93.390929623281
 20
255.2940896297
 30
0.0
 11
85.155934473875
 21
259.94254891365
 31
0.0
  0
CIRCLE
  5
173
330
18
100
AcDbEntity
  8
LEVEL001
  6
Continuous
 62
     1
370
    15
100
AcDbCircle
 10
81.672577790233
 20
261.90882107551
 30
0.0
 40
4.0
  0
LINE
  5
174
330
18
100
AcDbEntity
  8
LEVEL001
  6
Continuous
 62
     1
370
    15
100
AcDbLine
 10
93.390929623281
 20
255.2940896297
 30
0.0
 11
91.173557888952
 21
257.46881570885
 31
0.0
  0
LINE
  5
175
330
18
100
AcDbEntity
  8
LEVEL001
  6
Continuous
 62
     1
370
    15
100
AcDbLine
 10
93.390929623281
 20
255.2940896297
 30
0.0
 11
90.383266332145
 21
256.06877179335
 31
0.0
  0
MTEXT
  5
176
330
18
100
AcDbEntity
  8
LEVEL001
 62
     3
370
    20
100
AcDbMText
 10
78.844150665487
 20
259.08039395077
 30
0.0
 40
5.6568542494924
 41
0.0
 71
     7
 72
     1
  1
\A1;２
 73
     1
 44
1.0
  0
LINE
  5
177
330
18
100
AcDbEntity
  8
LEVEL001
  6
Continuous
 62
     1
370
    15
100
AcDbLine
 10
93.792829099552
 20
255.62095511332
 30
0.0
 11
93.792829099552
 21
265.13535935279
 31
0.0
  0
LINE
  5
178
330
18
100
AcDbEntity
  8
LEVEL001
  6
Continuous
 62
     1
370
    15
100
AcDbLine
 10
94.864257670981
 20
255.62095511332
 30
0.0
 11
94.864257670981
 21
265.13535935279
 31
0.0
  0
LINE
  5
179
330
18
100
AcDbEntity
  8
LEVEL001
  6
Continuous
 62
     1
370
    15
100
AcDbLine
 10
90.042829099552
 20
263.13535935279
 30
0.0
 11
94.328543385267
 21
263.13535935279
 31
0.0
  0
LINE
  5
17A
330
18
100
AcDbEntity
  8
LEVEL001
  6
Continuous
 62
     1
370
    15
100
AcDbLine
 10
98.614257670981
 20
263.13535935279
 30
0.0
 11
94.328543385267
 21
263.13535935279
 31
0.0
  0
LINE
  5
17B
330
18
100
AcDbEntity
  8
LEVEL001
  6
Continuous
 62
     1
370
    15
100
AcDbLine
 10
93.792829099552
 20
263.13535935279
 30
0.0
 11
90.792829099552
 21
263.93920693008
 31
0.0
  0
LINE
  5
17C
330
18
100
AcDbEntity
  8
LEVEL001
  6
Continuous
 62
     1
370
    15
100
AcDbLine
 10
93.792829099552
 20
263.13535935279
 30
0.0
 11
90.792829099552
 21
262.3315117755
 31
0.0
  0
LINE
  5
17D
330
18
100
AcDbEntity
  8
LEVEL001
  6
Continuous
 62
     1
370
    15
100
AcDbLine
 10
94.864257670981
 20
263.13535935279
 30
0.0
 11
97.864257670981
 21
262.3315117755
 31
0.0
  0
LINE
  5
17E
330
18
100
AcDbEntity
  8
LEVEL001
  6
Continuous
 62
     1
370
    15
100
AcDbLine
 10
94.864257670981
 20
263.13535935279
 30
0.0
 11
97.864257670981
 21
263.93920693008
 31
0.0
  0
MTEXT
  5
17F
330
18
100
AcDbEntity
  8
LEVEL001
 62
     3
370
    20
100
AcDbMText
 10
94.328543385267
 20
264.84964506707
 30
0.0
 40
4.0
 41
0.0
 71
     8
 72
     1
  1
\A1;(%%c75)
 73
     1
 44
1.0
  0
LINE
  5
180
330
18
100
AcDbEntity
  8
LEVEL001
  6
Continuous
 62
     1
370
    15
100
AcDbLine
 10
91.685686242409
 20
196.47809797047
 30
0.0
 11
48.828258221681
 21
196.47809797047
 31
0.0
  0
LINE
  5
181
330
18
100
AcDbEntity
  8
LEVEL001
  6
Continuous
 62
     1
370
    15
100
AcDbLine
 10
91.792829099552
 20
253.62095511333
 30
0.0
 11
48.828258221681
 21
253.62095511333
 31
0.0
  0
LINE
  5
182
330
18
100
AcDbEntity
  8
LEVEL001
  6
Continuous
 62
     1
370
    15
100
AcDbLine
 10
50.828258221681
 20
196.47809797047
 30
0.0
 11
50.828258221681
 21
225.0495265419
 31
0.0
  0
LINE
  5
183
330
18
100
AcDbEntity
  8
LEVEL001
  6
Continuous
 62
     1
370
    15
100
AcDbLine
 10
50.828258221681
 20
253.62095511333
 30
0.0
 11
50.828258221681
 21
225.0495265419
 31
0.0
  0
LINE
  5
184
330
18
100
AcDbEntity
  8
LEVEL001
  6
Continuous
 62
     1
370
    15
100
AcDbLine
 10
50.828258221681
 20
196.47809797047
 30
0.0
 11
51.632105798974
 21
199.47809797047
 31
0.0
  0
LINE
  5
185
330
18
100
AcDbEntity
  8
LEVEL001
  6
Continuous
 62
     1
370
    15
100
AcDbLine
 10
50.828258221681
 20
196.47809797047
 30
0.0
 11
50.024410644388
 21
199.47809797047
 31
0.0
  0
LINE
  5
186
330
18
100
AcDbEntity
  8
LEVEL001
  6
Continuous
 62
     1
370
    15
100
AcDbLine
 10
50.828258221681
 20
253.62095511333
 30
0.0
 11
50.024410644388
 21
250.62095511333
 31
0.0
  0
LINE
  5
187
330
18
100
AcDbEntity
  8
LEVEL001
  6
Continuous
 62
     1
370
    15
100
AcDbLine
 10
50.828258221681
 20
253.62095511333
 30
0.0
 11
51.632105798974
 21
250.62095511333
 31
0.0
  0
MTEXT
  5
188
330
18
100
AcDbEntity
  8
LEVEL001
 62
     3
370
    20
100
AcDbMText
 10
49.113972507395
 20
225.0495265419
 30
0.0
 40
4.0
 41
0.0
 71
     8
 72
     1
  1
\A1;(4000)
 11
0.0
 21
1.0
 31
0.0
 73
     1
 44
1.0
  0
LINE
  5
189
330
18
100
AcDbEntity
  8
LEVEL001
  6
Continuous
 62
     1
370
    15
100
AcDbLine
 10
94.564185519068
 20
95.392311532844
 30
0.0
 11
102.36717342036
 21
103.19529943413
 31
0.0
  0
LINE
  5
18A
330
18
100
AcDbEntity
  8
LEVEL001
  6
Continuous
 62
     1
370
    15
100
AcDbLine
 10
96.921328376211
 20
95.392311532844
 30
0.0
 11
104.7243162775
 21
103.19529943413
 31
0.0
  0
LINE
  5
18B
330
18
100
AcDbEntity
  8
LEVEL001
  6
Continuous
 62
     1
370
    15
100
AcDbLine
 10
97.202959857983
 20
101.78108587176
 30
0.0
 11
102.13153128655
 21
101.78108587176
 31
0.0
  0
LINE
  5
18C
330
18
100
AcDbEntity
  8
LEVEL001
  6
Continuous
 62
     1
370
    15
100
AcDbLine
 10
120.37146880751
 20
101.78108587176
 30
0.0
 11
102.13153128655
 21
101.78108587176
 31
0.0
  0
LINE
  5
18D
330
18
100
AcDbEntity
  8
LEVEL001
  6
Continuous
 62
     1
370
    15
100
AcDbLine
 10
100.95295985798
 20
101.78108587176
 30
0.0
 11
97.952959857983
 21
102.58493344905
 31
0.0
  0
LINE
  5
18E
330
18
100
AcDbEntity
  8
LEVEL001
  6
Continuous
 62
     1
370
    15
100
AcDbLine
 10
100.95295985798
 20
101.78108587176
 30
0.0
 11
97.952959857983
 21
100.97723829447
 31
0.0
  0
LINE
  5
18F
330
18
100
AcDbEntity
  8
LEVEL001
  6
Continuous
 62
     1
370
    15
100
AcDbLine
 10
103.31010271513
 20
101.78108587176
 30
0.0
 11
106.31010271513
 21
100.97723829447
 31
0.0
  0
LINE
  5
190
330
18
100
AcDbEntity
  8
LEVEL001
  6
Continuous
 62
     1
370
    15
100
AcDbLine
 10
103.31010271513
 20
101.78108587176
 30
0.0
 11
106.31010271513
 21
102.58493344905
 31
0.0
  0
MTEXT
  5
191
330
18
100
AcDbEntity
  8
LEVEL001
 62
     3
370
    20
100
AcDbMText
 10
106.37146880751
 20
103.49537158604
 30
0.0
 40
4.0
 41
0.0
 71
     7
 72
     1
  1
\A1;%%c165
 73
     1
 44
1.0
  0
POLYLINE
  5
192
330
18
100
AcDbEntity
  8
LEVEL001
  6
Continuous
 62
     1
370
    15
100
AcDb2dPolyline
 66
     1
 10
0.0
 20
0.0
 30
0.0
  0
VERTEX
  5
193
330
192
100
AcDbEntity
  8
LEVEL001
  6
Continuous
 62
     1
100
AcDbVertex
100
AcDb2dVertex
 10
95.185686242409
 20
139.33524082761
 30
0.0
  0
VERTEX
  5
194
330
192
100
AcDbEntity
  8
LEVEL001
  6
Continuous
 62
     1
100
AcDbVertex
100
AcDb2dVertex
 10
103.41433155822
 20
128.27397852666
 30
0.0
  0
VERTEX
  5
195
330
192
100
AcDbEntity
  8
LEVEL001
  6
Continuous
 62
     1
100
AcDbVertex
100
AcDb2dVertex
 10
120.92936271843
 20
128.27397852666
 30
0.0
  0
SEQEND
  5
196
330
192
100
AcDbEntity
  8
LEVEL001
  6
Continuous
 62
     1
  0
LINE
  5
197
330
18
100
AcDbEntity
  8
LEVEL001
  6
Continuous
 62
     1
370
    15
100
AcDbLine
 10
95.185686242409
 20
139.33524082761
 30
0.0
 11
96.331342768311
 21
136.44843601048
 31
0.0
  0
LINE
  5
198
330
18
100
AcDbEntity
  8
LEVEL001
  6
Continuous
 62
     1
370
    15
100
AcDbLine
 10
95.185686242409
 20
139.33524082761
 30
0.0
 11
97.621256306415
 21
137.40802278316
 31
0.0
  0
MTEXT
  5
199
102
{ACAD_REACTORS
330
198
102
}
330
18
100
AcDbEntity
  8
LEVEL001
 62
     3
370
    20
100
AcDbMText
 10
103.42936271843
 20
129.98826424095
 30
0.0
 40
4.0
 41
0.0
 71
     7
 72
     1
  1
\A1;現地結合部
 73
     1
 44
1.0
  0
POLYLINE
  5
19A
330
18
100
AcDbEntity
  8
LEVEL001
  6
Continuous
 62
     1
370
    15
100
AcDb2dPolyline
 66
     1
 10
0.0
 20
0.0
 30
0.0
  0
VERTEX
  5
19B
330
19A
100
AcDbEntity
  8
LEVEL001
  6
Continuous
 62
     1
100
AcDbVertex
100
AcDb2dVertex
 10
94.971400528124
 20
196.47809797047
 30
0.0
  0
VERTEX
  5
19C
330
19A
100
AcDbEntity
  8
LEVEL001
  6
Continuous
 62
     1
100
AcDbVertex
100
AcDb2dVertex
 10
103.64262024
 20
187.75599425853
 30
0.0
  0
VERTEX
  5
19D
330
19A
100
AcDbEntity
  8
LEVEL001
  6
Continuous
 62
     1
100
AcDbVertex
100
AcDb2dVertex
 10
121.63237100186
 20
187.75599425853
 30
0.0
  0
SEQEND
  5
19E
330
19A
100
AcDbEntity
  8
LEVEL001
  6
Continuous
 62
     1
  0
LINE
  5
19F
330
18
100
AcDbEntity
  8
LEVEL001
  6
Continuous
 62
     1
370
    15
100
AcDbLine
 10
94.971400528124
 20
196.47809797047
 30
0.0
 11
96.516439418437
 21
193.7838400476
 31
0.0
  0
LINE
  5
1A0
330
18
100
AcDbEntity
  8
LEVEL001
  6
Continuous
 62
     1
370
    15
100
AcDbLine
 10
94.971400528124
 20
196.47809797047
 30
0.0
 11
97.656572418404
 21
194.91732161008
 31
0.0
  0
MTEXT
  5
1A1
102
{ACAD_REACTORS
330
1A0
102
}
330
18
100
AcDbEntity
  8
LEVEL001
 62
     3
370
    20
100
AcDbMText
 10
104.13237100186
 20
189.47027997282
 30
0.0
 40
4.0
 41
0.0
 71
     7
 72
     1
  1
\A1;現地結合部
 73
     1
 44
1.0
  0
LINE
  5
1A2
330
18
100
AcDbEntity
  8
LEVEL001
  6
Continuous
 62
     1
370
    15
100
AcDbLine
 10
85.899971956697
 20
53.620955113328
 30
0.0
 11
35.810623537737
 21
53.620955113328
 31
0.0
  0
LINE
  5
1A3
330
18
100
AcDbEntity
  8
LEVEL001
  6
Continuous
 62
     1
370
    15
100
AcDbLine
 10
87.328543385267
 20
67.906669399043
 30
0.0
 11
35.810623537737
 21
67.906669399043
 31
0.0
  0
LINE
  5
1A4
330
18
100
AcDbEntity
  8
LEVEL001
  6
Continuous
 62
     1
370
    15
100
AcDbLine
 10
37.810623537737
 20
53.620955113328
 30
0.0
 11
37.810623537737
 21
60.763812256185
 31
0.0
  0
LINE
  5
1A5
330
18
100
AcDbEntity
  8
LEVEL001
  6
Continuous
 62
     1
370
    15
100
AcDbLine
 10
37.810623537737
 20
67.906669399043
 30
0.0
 11
37.810623537737
 21
60.763812256185
 31
0.0
  0
LINE
  5
1A6
330
18
100
AcDbEntity
  8
LEVEL001
  6
Continuous
 62
     1
370
    15
100
AcDbLine
 10
37.810623537737
 20
53.620955113328
 30
0.0
 11
38.614471115031
 21
56.620955113328
 31
0.0
  0
LINE
  5
1A7
330
18
100
AcDbEntity
  8
LEVEL001
  6
Continuous
 62
     1
370
    15
100
AcDbLine
 10
37.810623537737
 20
53.620955113328
 30
0.0
 11
37.006775960444
 21
56.620955113328
 31
0.0
  0
LINE
  5
1A8
330
18
100
AcDbEntity
  8
LEVEL001
  6
Continuous
 62
     1
370
    15
100
AcDbLine
 10
37.810623537737
 20
67.906669399043
 30
0.0
 11
37.006775960444
 21
64.906669399043
 31
0.0
  0
LINE
  5
1A9
330
18
100
AcDbEntity
  8
LEVEL001
  6
Continuous
 62
     1
370
    15
100
AcDbLine
 10
37.810623537737
 20
67.906669399043
 30
0.0
 11
38.614471115031
 21
64.906669399043
 31
0.0
  0
MTEXT
  5
1AA
330
18
100
AcDbEntity
  8
LEVEL001
 62
     3
370
    20
100
AcDbMText
 10
36.096337823452
 20
60.763812256185
 30
0.0
 40
4.0
 41
0.0
 71
     8
 72
     1
  1
\A1;1000
 11
0.0
 21
1.0
 31
0.0
 73
     1
 44
1.0
  0
LINE
  5
1AB
330
18
100
AcDbEntity
  8
LEVEL001
  6
Continuous
 62
     1
370
    15
100
AcDbLine
 10
91.471400528124
 20
139.33524082761
 30
0.0
 11
48.828258221681
 21
139.33524082761
 31
0.0
  0
LINE
  5
1AC
330
18
100
AcDbEntity
  8
LEVEL001
  6
Continuous
 62
     1
370
    15
100
AcDbLine
 10
91.149971956695
 20
67.906669399043
 30
0.0
 11
48.828258221681
 21
67.906669399043
 31
0.0
  0
LINE
  5
1AD
330
18
100
AcDbEntity
  8
LEVEL001
  6
Continuous
 62
     1
370
    15
100
AcDbLine
 10
50.828258221681
 20
139.33524082761
 30
0.0
 11
50.828258221681
 21
103.62095511333
 31
0.0
  0
LINE
  5
1AE
330
18
100
AcDbEntity
  8
LEVEL001
  6
Continuous
 62
     1
370
    15
100
AcDbLine
 10
50.828258221681
 20
67.906669399043
 30
0.0
 11
50.828258221681
 21
103.62095511333
 31
0.0
  0
LINE
  5
1AF
330
18
100
AcDbEntity
  8
LEVEL001
  6
Continuous
 62
     1
370
    15
100
AcDbLine
 10
50.828258221681
 20
139.33524082761
 30
0.0
 11
50.024410644388
 21
136.33524082761
 31
0.0
  0
LINE
  5
1B0
330
18
100
AcDbEntity
  8
LEVEL001
  6
Continuous
 62
     1
370
    15
100
AcDbLine
 10
50.828258221681
 20
139.33524082761
 30
0.0
 11
51.632105798974
 21
136.33524082761
 31
0.0
  0
LINE
  5
1B1
330
18
100
AcDbEntity
  8
LEVEL001
  6
Continuous
 62
     1
370
    15
100
AcDbLine
 10
50.828258221681
 20
67.906669399043
 30
0.0
 11
51.632105798974
 21
70.906669399043
 31
0.0
  0
LINE
  5
1B2
330
18
100
AcDbEntity
  8
LEVEL001
  6
Continuous
 62
     1
370
    15
100
AcDbLine
 10
50.828258221681
 20
67.906669399043
 30
0.0
 11
50.024410644388
 21
70.906669399043
 31
0.0
  0
MTEXT
  5
1B3
330
18
100
AcDbEntity
  8
LEVEL001
 62
     3
370
    20
100
AcDbMText
 10
49.113972507395
 20
103.62095511333
 30
0.0
 40
4.0
 41
0.0
 71
     8
 72
     1
  1
\A1;(5000)
 11
0.0
 21
1.0
 31
0.0
 73
     1
 44
1.0
  0
LINE
  5
1B4
330
18
100
AcDbEntity
  8
LEVEL001
  6
Continuous
 62
     1
370
    15
100
AcDbLine
 10
91.149971956695
 20
93.978097970471
 30
0.0
 11
60.765477916032
 21
93.978097970471
 31
0.0
  0
LINE
  5
1B5
330
18
100
AcDbEntity
  8
LEVEL001
  6
Continuous
 62
     1
370
    15
100
AcDbLine
 10
91.149971956695
 20
67.906669399043
 30
0.0
 11
60.765477916032
 21
67.906669399043
 31
0.0
  0
LINE
  5
1B6
330
18
100
AcDbEntity
  8
LEVEL001
  6
Continuous
 62
     1
370
    15
100
AcDbLine
 10
62.765477916032
 20
93.978097970471
 30
0.0
 11
62.765477916032
 21
80.942383684757
 31
0.0
  0
LINE
  5
1B7
330
18
100
AcDbEntity
  8
LEVEL001
  6
Continuous
 62
     1
370
    15
100
AcDbLine
 10
62.765477916032
 20
67.906669399043
 30
0.0
 11
62.765477916032
 21
80.942383684757
 31
0.0
  0
LINE
  5
1B8
330
18
100
AcDbEntity
  8
LEVEL001
  6
Continuous
 62
     1
370
    15
100
AcDbLine
 10
62.765477916032
 20
93.978097970471
 30
0.0
 11
61.961630338738
 21
90.978097970471
 31
0.0
  0
LINE
  5
1B9
330
18
100
AcDbEntity
  8
LEVEL001
  6
Continuous
 62
     1
370
    15
100
AcDbLine
 10
62.765477916032
 20
93.978097970471
 30
0.0
 11
63.569325493325
 21
90.978097970471
 31
0.0
  0
LINE
  5
1BA
330
18
100
AcDbEntity
  8
LEVEL001
  6
Continuous
 62
     1
370
    15
100
AcDbLine
 10
62.765477916032
 20
67.906669399043
 30
0.0
 11
63.569325493325
 21
70.906669399043
 31
0.0
  0
LINE
  5
1BB
330
18
100
AcDbEntity
  8
LEVEL001
  6
Continuous
 62
     1
370
    15
100
AcDbLine
 10
62.765477916032
 20
67.906669399043
 30
0.0
 11
61.961630338738
 21
70.906669399043
 31
0.0
  0
MTEXT
  5
1BC
330
18
100
AcDbEntity
  8
LEVEL001
 62
     3
370
    20
100
AcDbMText
 10
61.051192201746
 20
80.942383684757
 30
0.0
 40
4.0
 41
0.0
 71
     8
 72
     1
  1
\A1;(1825)
 11
0.0
 21
1.0
 31
0.0
 73
     1
 44
1.0
  0
LINE
  5
1BD
330
18
100
AcDbEntity
  8
LEVEL001
  6
Continuous
 62
     1
370
    15
100
AcDbLine
 10
91.149971956695
 20
67.906669399043
 30
0.0
 11
35.810623537737
 21
67.906669399043
 31
0.0
  0
LINE
  5
1BE
330
18
100
AcDbEntity
  8
LEVEL001
  6
Continuous
 62
     1
370
    15
100
AcDbLine
 10
91.792829099552
 20
253.62095511333
 30
0.0
 11
35.810623537737
 21
253.62095511333
 31
0.0
  0
LINE
  5
1BF
330
18
100
AcDbEntity
  8
LEVEL001
  6
Continuous
 62
     1
370
    15
100
AcDbLine
 10
37.810623537737
 20
67.906669399043
 30
0.0
 11
37.810623537737
 21
160.76381225619
 31
0.0
  0
LINE
  5
1C0
330
18
100
AcDbEntity
  8
LEVEL001
  6
Continuous
 62
     1
370
    15
100
AcDbLine
 10
37.810623537737
 20
253.62095511333
 30
0.0
 11
37.810623537737
 21
160.76381225619
 31
0.0
  0
LINE
  5
1C1
330
18
100
AcDbEntity
  8
LEVEL001
  6
Continuous
 62
     1
370
    15
100
AcDbLine
 10
37.810623537737
 20
67.906669399043
 30
0.0
 11
38.614471115031
 21
70.906669399043
 31
0.0
  0
LINE
  5
1C2
330
18
100
AcDbEntity
  8
LEVEL001
  6
Continuous
 62
     1
370
    15
100
AcDbLine
 10
37.810623537737
 20
67.906669399043
 30
0.0
 11
37.006775960444
 21
70.906669399043
 31
0.0
  0
LINE
  5
1C3
330
18
100
AcDbEntity
  8
LEVEL001
  6
Continuous
 62
     1
370
    15
100
AcDbLine
 10
37.810623537737
 20
253.62095511333
 30
0.0
 11
37.006775960444
 21
250.62095511333
 31
0.0
  0
LINE
  5
1C4
330
18
100
AcDbEntity
  8
LEVEL001
  6
Continuous
 62
     1
370
    15
100
AcDbLine
 10
37.810623537737
 20
253.62095511333
 30
0.0
 11
38.614471115031
 21
250.62095511333
 31
0.0
  0
MTEXT
  5
1C5
330
18
100
AcDbEntity
  8
LEVEL001
 62
     3
370
    20
100
AcDbMText
 10
36.096337823452
 20
160.76381225619
 30
0.0
 40
4.0
 41
0.0
 71
     8
 72
     1
  1
\A1;13000
 11
0.0
 21
1.0
 31
0.0
 73
     1
 44
1.0
  0
LINE
  5
1C6
330
18
100
AcDbEntity
  8
LEVEL001
  6
Continuous
 62
     3
370
    20
100
AcDbLine
 10
88.812903129266
 20
65.432311102515
 30
0.0
 11
89.328543385267
 21
66.325426224337
 31
0.0
  0
LINE
  5
1C7
330
18
100
AcDbEntity
  8
LEVEL001
  6
Continuous
 62
     3
370
    20
100
AcDbLine
 10
89.328543385267
 20
67.906669399042
 30
0.0
 11
80.739618886305
 21
67.906669399042
 31
0.0
  0
LINE
  5
1C8
330
18
100
AcDbEntity
  8
LEVEL001
  6
Continuous
 62
     3
370
    20
100
AcDbLine
 10
100.75711481384
 20
65.432311102516
 30
0.0
 11
102.18568624241
 21
67.906669399043
 31
0.0
  0
LINE
  5
1C9
330
18
100
AcDbEntity
  8
LEVEL001
  6
Continuous
 62
     3
370
    20
100
AcDbLine
 10
100.27140052812
 20
67.906669399043
 30
0.0
 11
101.22854338527
 21
66.24884934037
 31
0.0
  0
LINE
  5
1CA
330
18
100
AcDbEntity
  8
LEVEL001
  6
Continuous
 62
     3
370
    20
100
AcDbLine
 10
102.18568624241
 20
67.906669399043
 30
0.0
 11
103.61425767098
 21
65.432311102516
 31
0.0
  0
LINE
  5
1CB
330
18
100
AcDbEntity
  8
LEVEL001
  6
Continuous
 62
     3
370
    20
100
AcDbLine
 10
101.68754191394
 20
65.432311102516
 30
0.0
 11
102.65089979246
 21
67.100895893983
 31
0.0
  0
LINE
  5
1CC
330
18
100
AcDbEntity
  8
LEVEL001
  6
Continuous
 62
     3
370
    20
100
AcDbLine
 10
102.6303990568
 20
65.432311102516
 30
0.0
 11
103.12232836389
 21
66.284357656129
 31
0.0
  0
LINE
  5
1CD
330
18
100
AcDbEntity
  8
LEVEL001
  6
Continuous
 62
     3
370
    20
100
AcDbLine
 10
103.61425767098
 20
65.432311102516
 30
0.0
 11
105.04282909955
 21
67.906669399043
 31
0.0
  0
LINE
  5
1CE
330
18
100
AcDbEntity
  8
LEVEL001
  6
Continuous
 62
     3
370
    20
100
AcDbLine
 10
103.12854338527
 20
67.906669399043
 30
0.0
 11
104.08568624241
 21
66.24884934037
 31
0.0
  0
LINE
  5
1CF
330
18
100
AcDbEntity
  8
LEVEL001
  6
Continuous
 62
     3
370
    20
100
AcDbLine
 10
105.04282909955
 20
67.906669399043
 30
0.0
 11
106.47140052812
 21
65.432311102516
 31
0.0
  0
LINE
  5
1D0
330
18
100
AcDbEntity
  8
LEVEL001
  6
Continuous
 62
     3
370
    20
100
AcDbLine
 10
104.54468477108
 20
65.432311102516
 30
0.0
 11
105.5080426496
 21
67.100895893983
 31
0.0
  0
LINE
  5
1D1
330
18
100
AcDbEntity
  8
LEVEL001
  6
Continuous
 62
     3
370
    20
100
AcDbLine
 10
105.48754191394
 20
65.432311102516
 30
0.0
 11
105.97947122103
 21
66.284357656129
 31
0.0
  0
LINE
  5
1D2
330
18
100
AcDbEntity
  8
LEVEL001
  6
Continuous
 62
     3
370
    20
100
AcDbLine
 10
101.21425767098
 20
67.906669399043
 30
0.0
 11
101.6999719567
 21
67.065387578223
 31
0.0
  0
LINE
  5
1D3
330
18
100
AcDbEntity
  8
LEVEL001
  6
Continuous
 62
     3
370
    20
100
AcDbLine
 10
104.07140052812
 20
67.906669399043
 30
0.0
 11
104.55711481384
 21
67.065387578223
 31
0.0
  0
LINE
  5
1D4
330
18
100
AcDbEntity
  8
LEVEL001
  6
Continuous
 62
     3
370
    20
100
AcDbLine
 10
99.328543385267
 20
67.906669399043
 30
0.0
 11
100.75711481384
 21
65.432311102516
 31
0.0
  0
LINE
  5
1D5
330
18
100
AcDbEntity
  8
LEVEL001
  6
Continuous
 62
     3
370
    20
100
AcDbLine
 10
99.328543385267
 20
66.295122388924
 30
0.0
 11
99.793756935318
 21
67.100895893983
 31
0.0
  0
LINE
  5
1D6
330
18
100
AcDbEntity
  8
LEVEL001
  6
Continuous
 62
     3
370
    20
100
AcDbLine
 10
99.773256199656
 20
65.432311102516
 30
0.0
 11
100.26518550675
 21
66.284357656129
 31
0.0
  0
LINE
  5
1D7
330
18
100
AcDbEntity
  8
LEVEL001
  6
Continuous
 62
     3
370
    20
100
AcDbLine
 10
105.98568624241
 20
67.906669399043
 30
0.0
 11
106.94282909955
 21
66.24884934037
 31
0.0
  0
LINE
  5
1D8
330
18
100
AcDbEntity
  8
LEVEL001
  6
Continuous
 62
     3
370
    20
100
AcDbLine
 10
106.92854338527
 20
67.906669399043
 30
0.0
 11
107.41425767098
 21
67.065387578223
 31
0.0
  0
LINE
  5
1D9
330
18
100
AcDbEntity
  8
LEVEL001
  6
Continuous
 62
     3
370
    20
100
AcDbLine
 10
99.328543385267
 20
67.906669399043
 30
0.0
 11
109.17742395985
 21
67.906669399043
 31
0.0
  0
TEXT
  5
1DA
330
18
100
AcDbEntity
  8
LEVEL001
 62
     3
370
    20
100
AcDbText
 10
104.7122829263
 20
67.864436900771
 30
0.0
 40
4.0
  1
ＧＬ
 72
     5
 11
112.7122829263
 21
67.864436900771
 31
0.0
100
AcDbText
  0
LINE
  5
1DB
330
18
100
AcDbEntity
  8
LEVEL001
  6
Continuous
 62
     3
370
    20
100
AcDbLine
 10
87.899971956695
 20
65.432311102515
 30
0.0
 11
89.328543385267
 21
67.906669399042
 31
0.0
  0
LINE
  5
1DC
330
18
100
AcDbEntity
  8
LEVEL001
  6
Continuous
 62
     3
370
    20
100
AcDbLine
 10
88.357114813838
 20
67.906669399042
 30
0.0
 11
88.842829099552
 21
67.065387578223
 31
0.0
  0
LINE
  5
1DD
330
18
100
AcDbEntity
  8
LEVEL001
  6
Continuous
 62
     3
370
    20
100
AcDbLine
 10
87.414257670981
 20
67.906669399042
 30
0.0
 11
88.371400528124
 21
66.248849340369
 31
0.0
  0
LINE
  5
1DE
330
18
100
AcDbEntity
  8
LEVEL001
  6
Continuous
 62
     3
370
    20
100
AcDbLine
 10
86.471400528124
 20
67.906669399042
 30
0.0
 11
87.899971956695
 21
65.432311102515
 31
0.0
  0
LINE
  5
1DF
330
18
100
AcDbEntity
  8
LEVEL001
  6
Continuous
 62
     3
370
    20
100
AcDbLine
 10
85.973256199656
 20
65.432311102515
 30
0.0
 11
86.936614078176
 21
67.100895893983
 31
0.0
  0
LINE
  5
1E0
330
18
100
AcDbEntity
  8
LEVEL001
  6
Continuous
 62
     3
370
    20
100
AcDbLine
 10
86.916113342513
 20
65.432311102515
 30
0.0
 11
87.408042649604
 21
66.284357656129
 31
0.0
  0
LINE
  5
1E1
330
18
100
AcDbEntity
  8
LEVEL001
  6
Continuous
 62
     3
370
    20
100
AcDbLine
 10
85.042829099552
 20
65.432311102515
 30
0.0
 11
86.471400528124
 21
67.906669399042
 31
0.0
  0
LINE
  5
1E2
330
18
100
AcDbEntity
  8
LEVEL001
  6
Continuous
 62
     3
370
    20
100
AcDbLine
 10
84.557114813838
 20
67.906669399042
 30
0.0
 11
85.514257670981
 21
66.248849340369
 31
0.0
  0
LINE
  5
1E3
330
18
100
AcDbEntity
  8
LEVEL001
  6
Continuous
 62
     3
370
    20
100
AcDbLine
 10
85.499971956695
 20
67.906669399042
 30
0.0
 11
85.98568624241
 21
67.065387578223
 31
0.0
  0
LINE
  5
1E4
330
18
100
AcDbEntity
  8
LEVEL001
  6
Continuous
 62
     3
370
    20
100
AcDbLine
 10
82.18568624241
 20
65.432311102515
 30
0.0
 11
83.614257670981
 21
67.906669399042
 31
0.0
  0
LINE
  5
1E5
330
18
100
AcDbEntity
  8
LEVEL001
  6
Continuous
 62
     3
370
    20
100
AcDbLine
 10
81.699971956695
 20
67.906669399042
 30
0.0
 11
82.657114813838
 21
66.248849340369
 31
0.0
  0
LINE
  5
1E6
330
18
100
AcDbEntity
  8
LEVEL001
  6
Continuous
 62
     3
370
    20
100
AcDbLine
 10
83.614257670981
 20
67.906669399042
 30
0.0
 11
85.042829099552
 21
65.432311102515
 31
0.0
  0
LINE
  5
1E7
330
18
100
AcDbEntity
  8
LEVEL001
  6
Continuous
 62
     3
370
    20
100
AcDbLine
 10
83.116113342513
 20
65.432311102515
 30
0.0
 11
84.079471221033
 21
67.100895893983
 31
0.0
  0
LINE
  5
1E8
330
18
100
AcDbEntity
  8
LEVEL001
  6
Continuous
 62
     3
370
    20
100
AcDbLine
 10
84.05897048537
 20
65.432311102515
 30
0.0
 11
84.550899792461
 21
66.284357656129
 31
0.0
  0
LINE
  5
1E9
330
18
100
AcDbEntity
  8
LEVEL001
  6
Continuous
 62
     3
370
    20
100
AcDbLine
 10
82.642829099552
 20
67.906669399042
 30
0.0
 11
83.128543385267
 21
67.065387578223
 31
0.0
  0
LINE
  5
1EA
330
18
100
AcDbEntity
  8
LEVEL001
  6
Continuous
 62
     3
370
    20
100
AcDbLine
 10
92.817829099552
 20
84.406669399042
 30
0.0
 11
92.910686242409
 21
84.406669399042
 31
0.0
  0
LINE
  5
1EB
330
18
100
AcDbEntity
  8
LEVEL001
  6
Continuous
 62
     3
370
    20
100
AcDbLine
 10
92.794467867922
 20
84.796023259553
 30
0.0
 11
92.817829099552
 21
84.406669399042
 31
0.0
  0
LINE
  5
1EC
330
18
100
AcDbEntity
  8
LEVEL001
  6
Continuous
 62
     3
370
    20
100
AcDbLine
 10
93.071400528124
 20
84.792383684757
 30
0.0
 11
93.071400528124
 21
84.335240827614
 31
0.0
  0
LINE
  5
1ED
330
18
100
AcDbEntity
  8
LEVEL001
  6
Continuous
 62
     3
370
    20
100
AcDbLine
 10
93.071400528124
 20
83.878097970471
 30
0.0
 11
93.071400528124
 21
84.335240827614
 31
0.0
  0
LINE
  5
1EE
330
18
100
AcDbEntity
  8
LEVEL001
  6
Continuous
 62
     3
370
    20
100
AcDbLine
 10
93.149971956695
 20
85.192383684757
 30
0.0
 11
93.071400528124
 21
84.792383684757
 31
0.0
  0
LINE
  5
1EF
330
18
100
AcDbEntity
  8
LEVEL001
  6
Continuous
 62
     3
370
    20
100
AcDbLine
 10
93.149971956695
 20
83.478097970471
 30
0.0
 11
93.071400528124
 21
83.878097970471
 31
0.0
  0
ARC
  5
1F0
330
18
100
AcDbEntity
  8
LEVEL001
  6
Continuous
 62
     3
370
    20
100
AcDbCircle
 10
93.009291120263
 20
85.081333600518
 30
0.0
 40
0.35714285714286
100
AcDbArc
 50
180.00000000001
 51
233.02223081456
  0
LINE
  5
1F1
330
18
100
AcDbEntity
  8
LEVEL001
  6
HIDDEN
 62
     1
370
    15
100
AcDbLine
 10
93.114205663867
 20
83.161669399042
 30
0.0
 11
93.149971956695
 21
83.161669399042
 31
0.0
  0
LINE
  5
1F2
330
18
100
AcDbEntity
  8
LEVEL001
  6
HIDDEN
 62
     1
370
    15
100
AcDbLine
 10
93.114205663867
 20
83.161669399042
 30
0.0
 11
93.114205663867
 21
83.128097970471
 31
0.0
  0
LINE
  5
1F3
330
18
100
AcDbEntity
  8
LEVEL001
  6
HIDDEN
 62
     1
370
    15
100
AcDbLine
 10
93.114205663867
 20
83.285240827614
 30
0.0
 11
93.114205663867
 21
83.251669399042
 31
0.0
  0
LINE
  5
1F4
330
18
100
AcDbEntity
  8
LEVEL001
  6
HIDDEN
 62
     1
370
    15
100
AcDbLine
 10
93.114205663867
 20
83.251669399042
 30
0.0
 11
93.149971956695
 21
83.251669399042
 31
0.0
  0
LINE
  5
1F5
330
18
100
AcDbEntity
  8
LEVEL001
  6
Continuous
 62
     3
370
    20
100
AcDbLine
 10
92.650139036929
 20
85.334088458338
 30
0.0
 11
92.65214826312
 21
85.081333600518
 31
0.0
  0
LINE
  5
1F6
330
18
100
AcDbEntity
  8
LEVEL001
  6
DOT
 62
     1
370
    15
100
AcDbLine
 10
93.099919949581
 20
83.131669399042
 30
0.0
 11
93.114205663867
 21
83.131669399042
 31
0.0
  0
LINE
  5
1F7
330
18
100
AcDbEntity
  8
LEVEL001
  6
DOT
 62
     1
370
    15
100
AcDbLine
 10
93.114205663867
 20
83.281669399042
 30
0.0
 11
93.114205663867
 21
83.131669399042
 31
0.0
  0
LINE
  5
1F8
330
18
100
AcDbEntity
  8
LEVEL001
  6
DOT
 62
     1
370
    15
100
AcDbLine
 10
93.099919949581
 20
83.281669399042
 30
0.0
 11
93.114205663867
 21
83.281669399042
 31
0.0
  0
LINE
  5
1F9
330
18
100
AcDbEntity
  8
LEVEL001
  6
Continuous
 62
     3
370
    20
100
AcDbLine
 10
93.057062806724
 20
83.174526541899
 30
0.0
 11
93.057062806724
 21
83.238812256185
 31
0.0
  0
LINE
  5
1FA
330
18
100
AcDbEntity
  8
LEVEL001
  6
Continuous
 62
     3
370
    20
100
AcDbLine
 10
93.149971956695
 20
83.042383684757
 30
0.0
 11
93.149971956695
 21
83.478097970471
 31
0.0
  0
ARC
  5
1FB
330
18
100
AcDbEntity
  8
LEVEL001
  6
Continuous
 62
     3
370
    20
100
AcDbCircle
 10
93.500792374066
 20
83.437543479496
 30
0.0
 40
0.85714285714286
100
AcDbArc
 50
142.92793628941
 51
187.12650048793
  0
LINE
  5
1FC
330
18
100
AcDbEntity
  8
LEVEL001
  6
HIDDEN
 62
     1
370
    15
100
AcDbLine
 10
93.114205663867
 20
85.508812256185
 30
0.0
 11
93.149971956695
 21
85.508812256185
 31
0.0
  0
LINE
  5
1FD
330
18
100
AcDbEntity
  8
LEVEL001
  6
HIDDEN
 62
     1
370
    15
100
AcDbLine
 10
93.114205663867
 20
85.508812256185
 30
0.0
 11
93.114205663867
 21
85.542383684757
 31
0.0
  0
LINE
  5
1FE
330
18
100
AcDbEntity
  8
LEVEL001
  6
HIDDEN
 62
     1
370
    15
100
AcDbLine
 10
93.114205663867
 20
85.385240827614
 30
0.0
 11
93.114205663867
 21
85.418812256185
 31
0.0
  0
LINE
  5
1FF
330
18
100
AcDbEntity
  8
LEVEL001
  6
HIDDEN
 62
     1
370
    15
100
AcDbLine
 10
93.114205663867
 20
85.418812256185
 30
0.0
 11
93.149971956695
 21
85.418812256185
 31
0.0
  0
LINE
  5
200
330
18
100
AcDbEntity
  8
LEVEL001
  6
DOT
 62
     1
370
    15
100
AcDbLine
 10
93.099919949581
 20
85.538812256185
 30
0.0
 11
93.114205663867
 21
85.538812256185
 31
0.0
  0
LINE
  5
201
330
18
100
AcDbEntity
  8
LEVEL001
  6
DOT
 62
     1
370
    15
100
AcDbLine
 10
93.114205663867
 20
85.388812256185
 30
0.0
 11
93.114205663867
 21
85.538812256185
 31
0.0
  0
LINE
  5
202
330
18
100
AcDbEntity
  8
LEVEL001
  6
DOT
 62
     1
370
    15
100
AcDbLine
 10
93.099919949581
 20
85.388812256185
 30
0.0
 11
93.114205663867
 21
85.388812256185
 31
0.0
  0
LINE
  5
203
330
18
100
AcDbEntity
  8
LEVEL001
  6
Continuous
 62
     3
370
    20
100
AcDbLine
 10
93.057062806724
 20
85.495955113328
 30
0.0
 11
93.057062806724
 21
85.431669399042
 31
0.0
  0
LINE
  5
204
330
18
100
AcDbEntity
  8
LEVEL001
  6
Continuous
 62
     3
370
    20
100
AcDbLine
 10
93.149971956695
 20
85.628097970471
 30
0.0
 11
93.149971956695
 21
85.192383684757
 31
0.0
  0
LWPOLYLINE
  5
205
330
18
100
AcDbEntity
  8
LEVEL001
  6
Continuous
 62
     3
370
    20
100
AcDbPolyline
 90
       65
 70
     0
 43
0.0
 10
92.589406458519
 20
85.265978405509
 10
92.587970279163
 20
85.23344759553
 10
92.586538998177
 20
85.200943736743
 10
92.585117513928
 20
85.168493780339
 10
92.583710724787
 20
85.13612467751
 10
92.582323529123
 20
85.103863379448
 10
92.580960825305
 20
85.071736837344
 10
92.579627511702
 20
85.03977200239
 10
92.578328486683
 20
85.007995825778
 10
92.577068648618
 20
84.976435258699
 10
92.575852895876
 20
84.945117252345
 10
92.574686126826
 20
84.914068757909
 10
92.573573239837
 20
84.88331672658
 10
92.572519133279
 20
84.852888109552
 10
92.571528705521
 20
84.822809858016
 10
92.570606854931
 20
84.793108923163
 10
92.56975847988
 20
84.763812256185
 10
92.568987081476
 20
84.734937824544
 10
92.568290571791
 20
84.706467660778
 10
92.567665465633
 20
84.678374813695
 10
92.567108277813
 20
84.650632332105
 10
92.566615523142
 20
84.623213264815
 10
92.566183716429
 20
84.596090660633
 10
92.565809372486
 20
84.569237568368
 10
92.565489006121
 20
84.542627036828
 10
92.565219132145
 20
84.516232114822
 10
92.564996265369
 20
84.490025851157
 10
92.564816920602
 20
84.463981294643
 10
92.564677612655
 20
84.438071494087
 10
92.564574856338
 20
84.412269498298
 10
92.564505166461
 20
84.386548356084
 10
92.564465057835
 20
84.360881116253
 10
92.564451045269
 20
84.335240827614
 10
92.564460804547
 20
84.309600538974
 10
92.564496655349
 20
84.283933299144
 10
92.564562078327
 20
84.258212156929
 10
92.564660554132
 20
84.23241016114
 10
92.564795563418
 20
84.206500360584
 10
92.564970586838
 20
84.180455804069
 10
92.565189105042
 20
84.154249540405
 10
92.565454598684
 20
84.127854618399
 10
92.565770548417
 20
84.101244086859
 10
92.566140434893
 20
84.074390994594
 10
92.566567738763
 20
84.047268390412
 10
92.567055940681
 20
84.019849323122
 10
92.5676085213
 20
83.992106841531
 10
92.568228961271
 20
83.964013994449
 10
92.568920741246
 20
83.935543830683
 10
92.56968734188
 20
83.906669399042
 10
92.570530848075
 20
83.877372732065
 10
92.571447761749
 20
83.847671797212
 10
92.572433189069
 20
83.817593545676
 10
92.573482236203
 20
83.787164928648
 10
92.57459000932
 20
83.75641289732
 10
92.575751614587
 20
83.725364402884
 10
92.576962158173
 20
83.694046396531
 10
92.578216746245
 20
83.662485829452
 10
92.579510484973
 20
83.63070965284
 10
92.580838480524
 20
83.598744817887
 10
92.582195839065
 20
83.566618275783
 10
92.583577666767
 20
83.534356977721
 10
92.584979069795
 20
83.501987874892
 10
92.586395154319
 20
83.469537918488
 10
92.587821026507
 20
83.437034059701
 10
92.589251792527
 20
83.404503249722
  0
LWPOLYLINE
  5
206
330
18
100
AcDbEntity
  8
LEVEL001
  6
Continuous
 62
     3
370
    20
100
AcDbPolyline
 90
       65
 70
     0
 43
0.0
 10
92.646355941374
 20
85.265978405509
 10
92.644922474801
 20
85.233395489868
 10
92.643493842767
 20
85.200840751433
 10
92.642074879811
 20
85.168342367414
 10
92.640670420471
 20
85.135928515016
 10
92.639285299288
 20
85.103627371447
 10
92.6379243508
 20
85.071467113914
 10
92.636592409546
 20
85.039475919625
 10
92.635294310065
 20
85.007681965787
 10
92.634034886896
 20
84.976113429607
 10
92.632818974578
 20
84.944798488292
 10
92.631651407651
 20
84.91376531905
 10
92.630537020653
 20
84.883042099088
 10
92.629480648123
 20
84.852657005614
 10
92.628487124601
 20
84.822638215833
 10
92.627561284625
 20
84.793013906955
 10
92.626707962735
 20
84.763812256185
 10
92.62593066004
 20
84.735051230986
 10
92.62522754393
 20
84.706707959833
 10
92.624595448368
 20
84.678749361458
 10
92.624031207313
 20
84.65114235459
 10
92.623531654727
 20
84.62385385796
 10
92.623093624572
 20
84.596850790298
 10
92.622713950808
 20
84.570100070334
 10
92.622389467396
 20
84.5435686168
 10
92.622117008298
 20
84.517223348425
 10
92.621893407475
 20
84.49103118394
 10
92.621715498887
 20
84.464959042075
 10
92.621580116496
 20
84.43897384156
 10
92.621484094263
 20
84.413042501126
 10
92.62142426615
 20
84.387131939504
 10
92.621397466116
 20
84.361209075423
 10
92.621400528124
 20
84.335240827614
 10
92.621431191787
 20
84.309199018869
 10
92.621490819331
 20
84.283075088232
 10
92.621581678636
 20
84.256865378805
 10
92.62170603758
 20
84.230566233695
 10
92.621866164042
 20
84.204173996005
 10
92.622064325902
 20
84.17768500884
 10
92.622302791038
 20
84.151095615304
 10
92.62258382733
 20
84.124402158502
 10
92.622909702656
 20
84.097600981538
 10
92.623282684895
 20
84.070688427517
 10
92.623705041926
 20
84.043660839543
 10
92.624179041629
 20
84.016514560721
 10
92.624706951883
 20
83.989245934156
 10
92.625291040565
 20
83.961851302951
 10
92.625933575556
 20
83.934327010212
 10
92.626636824735
 20
83.906669399042
 10
92.627402021936
 20
83.878876848856
 10
92.628226264825
 20
83.850955884302
 10
92.629105617023
 20
83.822915066338
 10
92.630036142149
 20
83.794762955922
 10
92.631013903824
 20
83.766508114011
 10
92.632034965671
 20
83.738159101565
 10
92.633095391309
 20
83.709724479539
 10
92.634191244359
 20
83.681212808893
 10
92.635318588443
 20
83.652632650585
 10
92.63647348718
 20
83.623992565571
 10
92.637652004192
 20
83.59530111481
 10
92.638850203101
 20
83.56656685926
 10
92.640064147525
 20
83.537798359878
 10
92.641289901088
 20
83.509004177623
 10
92.642523527408
 20
83.480192873452
 10
92.643761090108
 20
83.451373008323
  0
POINT
  5
207
330
18
100
AcDbEntity
  8
LEVEL001
 62
     2
100
AcDbPoint
 10
93.149971956695
 20
84.335240827614
 30
0.0
  0
ARC
  5
208
330
18
100
AcDbEntity
  8
LEVEL001
  6
Continuous
 62
     3
370
    20
100
AcDbCircle
 10
92.621760982644
 20
83.333074678291
 30
0.0
 40
0.028571428571429
100
AcDbArc
 50
189.81802439648
 51
356.24988759865
  0
ARC
  5
209
330
18
100
AcDbEntity
  8
LEVEL001
  6
Continuous
 62
     3
370
    20
100
AcDbCircle
 10
92.621760982646
 20
85.337406976937
 30
0.0
 40
0.028571428571429
100
AcDbArc
 50
353.3301469406699
 51
170.18197560306
  0
LWPOLYLINE
  5
20A
330
18
100
AcDbEntity
  8
LEVEL001
  6
Continuous
 62
     3
370
    20
100
AcDbPolyline
 90
      161
 70
     0
 43
0.0
 10
92.593608002521
 20
85.342278962233
 10
92.592263130029
 20
85.333984603998
 10
92.590915625417
 20
85.325664972902
 10
92.589562856564
 20
85.317294796084
 10
92.588202191352
 20
85.308848800681
 10
92.586830997661
 20
85.300301713832
 10
92.58544664337
 20
85.291628262677
 10
92.584046496359
 20
85.282803174354
 10
92.58262792451
 20
85.273801176001
 10
92.581188295702
 20
85.264596994757
 10
92.579724977815
 20
85.255165357762
 10
92.57823533873
 20
85.245480992152
 10
92.576716746327
 20
85.235518625068
 10
92.575166568486
 20
85.225252983648
 10
92.573582173087
 20
85.214658795031
 10
92.57196092801
 20
85.203710786355
 10
92.570300201137
 20
85.192383684758
 10
92.56859882433
 20
85.18066176992
 10
92.566861485393
 20
85.168567531679
 10
92.565094336114
 20
85.156133012411
 10
92.563303528278
 20
85.143390254496
 10
92.561495213673
 20
85.13037130031
 10
92.559675544085
 20
85.117108192232
 10
92.557850671302
 20
85.103632972639
 10
92.556026747111
 20
85.08997768391
 10
92.554209923298
 20
85.07617436842
 10
92.55240635165
 20
85.06225506855
 10
92.550622183954
 20
85.048251826676
 10
92.548863571998
 20
85.034196685175
 10
92.547136667568
 20
85.020121686427
 10
92.545447622451
 20
85.006058872808
 10
92.543802588433
 20
84.992040286697
 10
92.542207717303
 20
84.978097970471
 10
92.540667772525
 20
84.964257196991
 10
92.539181964284
 20
84.950516161053
 10
92.537748114442
 20
84.936866287937
 10
92.536364044862
 20
84.923299002921
 10
92.535027577406
 20
84.909805731284
 10
92.533736533938
 20
84.896377898306
 10
92.532488736319
 20
84.883006929267
 10
92.531282006413
 20
84.869684249444
 10
92.530114166083
 20
84.856401284118
 10
92.52898303719
 20
84.843149458567
 10
92.527886441598
 20
84.829920198072
 10
92.52682220117
 20
84.81670492791
 10
92.525788137768
 20
84.803495073361
 10
92.524782073254
 20
84.790282059704
 10
92.523801829493
 20
84.777057312219
 10
92.522845228345
 20
84.763812256185
 10
92.521910586322
 20
84.750540122085
 10
92.520998198523
 20
84.737241361221
 10
92.520108854693
 20
84.723918230097
 10
92.51924334458
 20
84.71057298522
 10
92.51840245793
 20
84.697207883094
 10
92.517586984489
 20
84.683825180226
 10
92.516797714003
 20
84.67042713312
 10
92.51603543622
 20
84.657015998283
 10
92.515300940886
 20
84.64359403222
 10
92.514595017746
 20
84.630163491435
 10
92.513918456548
 20
84.616726632436
 10
92.513272047038
 20
84.603285711726
 10
92.512656578962
 20
84.589842985812
 10
92.512072842067
 20
84.5764007112
 10
92.5115216261
 20
84.562961144393
 10
92.511003720806
 20
84.549526541899
 10
92.510519726208
 20
84.536098708922
 10
92.510069483437
 20
84.52267764546
 10
92.509652643898
 20
84.509262900214
 10
92.509268858998
 20
84.495854021883
 10
92.508917780142
 20
84.482450559164
 10
92.508599058738
 20
84.469052060758
 10
92.50831234619
 20
84.455658075362
 10
92.508057293905
 20
84.442268151676
 10
92.50783355329
 20
84.428881838399
 10
92.50764077575
 20
84.41549868423
 10
92.507478612691
 20
84.402118237867
 10
92.507346715521
 20
84.38874004801
 10
92.507244735644
 20
84.375363663357
 10
92.507172324467
 20
84.361988632607
 10
92.507129133396
 20
84.34861450446
 10
92.507114813838
 20
84.335240827614
 10
92.507129133396
 20
84.321867150767
 10
92.507172324467
 20
84.30849302262
 10
92.507244735643
 20
84.29511799187
 10
92.50734671552
 20
84.281741607217
 10
92.507478612691
 20
84.26836341736
 10
92.507640775749
 20
84.254982970997
 10
92.507833553289
 20
84.241599816828
 10
92.508057293904
 20
84.228213503551
 10
92.508312346189
 20
84.214823579865
 10
92.508599058737
 20
84.20142959447
 10
92.508917780141
 20
84.188031096063
 10
92.509268858997
 20
84.174627633345
 10
92.509652643897
 20
84.161218755013
 10
92.510069483436
 20
84.147804009767
 10
92.510519726208
 20
84.134382946306
 10
92.511003720805
 20
84.120955113328
 10
92.511521626099
 20
84.107520510834
 10
92.512072842067
 20
84.094080944028
 10
92.512656578962
 20
84.080638669415
 10
92.513272047038
 20
84.067195943501
 10
92.513918456548
 20
84.053755022791
 10
92.514595017747
 20
84.040318163792
 10
92.515300940886
 20
84.026887623007
 10
92.516035436221
 20
84.013465656944
 10
92.516797714004
 20
84.000054522107
 10
92.517586984489
 20
83.986656475001
 10
92.51840245793
 20
83.973273772133
 10
92.51924334458
 20
83.959908670007
 10
92.520108854693
 20
83.94656342513
 10
92.520998198522
 20
83.933240294007
 10
92.521910586321
 20
83.919941533142
 10
92.522845228344
 20
83.906669399042
 10
92.523801829491
 20
83.893424343008
 10
92.524782073252
 20
83.880199595523
 10
92.525788137765
 20
83.866986581867
 10
92.526822201167
 20
83.853776727318
 10
92.527886441595
 20
83.840561457156
 10
92.528983037187
 20
83.82733219666
 10
92.530114166079
 20
83.81408037111
 10
92.53128200641
 20
83.800797405784
 10
92.532488736316
 20
83.787474725961
 10
92.533736533934
 20
83.774103756921
 10
92.535027577403
 20
83.760675923944
 10
92.536364044859
 20
83.747182652307
 10
92.537748114439
 20
83.733615367291
 10
92.539181964282
 20
83.719965494174
 10
92.540667772524
 20
83.706224458236
 10
92.542207717302
 20
83.692383684757
 10
92.543802588433
 20
83.67844136853
 10
92.545447622451
 20
83.664422782419
 10
92.547136667569
 20
83.6503599688
 10
92.548863572
 20
83.636284970051
 10
92.550622183957
 20
83.622229828551
 10
92.552406351653
 20
83.608226586677
 10
92.554209923301
 20
83.594307286806
 10
92.556026747114
 20
83.580503971317
 10
92.557850671306
 20
83.566848682587
 10
92.559675544089
 20
83.553373462995
 10
92.561495213676
 20
83.540110354917
 10
92.563303528281
 20
83.527091400731
 10
92.565094336117
 20
83.514348642816
 10
92.566861485396
 20
83.501914123549
 10
92.568598824332
 20
83.489819885308
 10
92.570300201137
 20
83.478097970471
 10
92.57196092801
 20
83.466770868875
 10
92.573582173085
 20
83.455822860199
 10
92.575166568483
 20
83.445228671582
 10
92.576716746323
 20
83.434963030162
 10
92.578235338726
 20
83.425000663079
 10
92.57972497781
 20
83.41531629747
 10
92.581188295696
 20
83.405884660474
 10
92.582627924503
 20
83.396680479231
 10
92.584046496352
 20
83.387678480878
 10
92.585446643362
 20
83.378853392554
 10
92.586830997654
 20
83.370179941399
 10
92.588202191346
 20
83.36163285455
 10
92.589562856559
 20
83.353186859147
 10
92.590915625412
 20
83.344816682327
 10
92.592263130026
 20
83.336497051231
 10
92.593608002519
 20
83.328202692995
  0
ARC
  5
20B
330
18
100
AcDbEntity
  8
LEVEL001
  6
Continuous
 62
     3
370
    20
100
AcDbCircle
 10
92.862490017029
 20
83.919798703419
 30
0.0
 40
0.057142857142857
100
AcDbArc
 50
21.936801848603
 51
142.92793628937
  0
LINE
  5
20C
330
18
100
AcDbEntity
  8
LEVEL001
  6
Continuous
 62
     3
370
    20
100
AcDbLine
 10
92.932678933481
 20
84.773214250239
 30
0.0
 11
92.910686242409
 21
84.406669399042
 31
0.0
  0
LINE
  5
20D
330
18
100
AcDbEntity
  8
LEVEL001
  6
HIDDEN
 62
     1
370
    15
100
AcDbLine
 10
93.090750288131
 20
85.542383684757
 30
0.0
 11
93.114205663867
 21
85.542383684757
 31
0.0
  0
ARC
  5
20E
330
18
100
AcDbEntity
  8
LEVEL001
  6
DOT
 62
     1
370
    15
100
AcDbCircle
 10
93.099919949581
 20
85.495955113328
 30
0.0
 40
0.042857142857143
100
AcDbArc
 50
89.999999999514
 51
102.62388350048
  0
ARC
  5
20F
330
18
100
AcDbEntity
  8
LEVEL001
  6
DOT
 62
     1
370
    15
100
AcDbCircle
 10
93.099919949582
 20
85.431669399042
 30
0.0
 40
0.042857142857143
100
AcDbArc
 50
242.30847316518
 51
269.99999999866
  0
LINE
  5
210
330
18
100
AcDbEntity
  8
LEVEL001
  6
HIDDEN
 62
     1
370
    15
100
AcDbLine
 10
93.079115833815
 20
85.385240827614
 30
0.0
 11
93.114205663867
 21
85.385240827614
 31
0.0
  0
ARC
  5
211
330
18
100
AcDbEntity
  8
LEVEL001
  6
Continuous
 62
     3
370
    20
100
AcDbCircle
 10
93.099919949581
 20
85.431669399043
 30
0.0
 40
0.042857142857143
100
AcDbArc
 50
180.00000000059
 51
242.3084731666
  0
ARC
  5
212
330
18
100
AcDbEntity
  8
LEVEL001
  6
Continuous
 62
     3
370
    20
100
AcDbCircle
 10
93.099919949581
 20
85.495955113328
 30
0.0
 40
0.042857142857143
100
AcDbArc
 50
102.62388350098
 51
180.0000000001
  0
LINE
  5
213
330
18
100
AcDbEntity
  8
LEVEL001
  6
HIDDEN
 62
     1
370
    15
100
AcDbLine
 10
93.079115833815
 20
83.285240827614
 30
0.0
 11
93.114205663867
 21
83.285240827614
 31
0.0
  0
ARC
  5
214
330
18
100
AcDbEntity
  8
LEVEL001
  6
DOT
 62
     1
370
    15
100
AcDbCircle
 10
93.099919949582
 20
83.238812256185
 30
0.0
 40
0.042857142857143
100
AcDbArc
 50
90.000000001424
 51
117.69152683493
  0
ARC
  5
215
330
18
100
AcDbEntity
  8
LEVEL001
  6
DOT
 62
     1
370
    15
100
AcDbCircle
 10
93.099919949581
 20
83.174526541899
 30
0.0
 40
0.042857142857143
100
AcDbArc
 50
257.37611649952
 51
270.00000000049
  0
LINE
  5
216
330
18
100
AcDbEntity
  8
LEVEL001
  6
HIDDEN
 62
     1
370
    15
100
AcDbLine
 10
93.090750288131
 20
83.128097970471
 30
0.0
 11
93.114205663867
 21
83.128097970471
 31
0.0
  0
ARC
  5
217
330
18
100
AcDbEntity
  8
LEVEL001
  6
Continuous
 62
     3
370
    20
100
AcDbCircle
 10
93.099919949581
 20
83.174526541899
 30
0.0
 40
0.042857142857143
100
AcDbArc
 50
179.99999999986
 51
257.3761164990199
  0
ARC
  5
218
330
18
100
AcDbEntity
  8
LEVEL001
  6
Continuous
 62
     3
370
    20
100
AcDbCircle
 10
93.099919949581
 20
83.238812256185
 30
0.0
 40
0.042857142857143
100
AcDbArc
 50
117.6915268334
 51
179.99999999937
  0
ARC
  5
219
330
18
100
AcDbEntity
  8
LEVEL001
  6
Continuous
 62
     3
370
    20
100
AcDbCircle
 10
90.642884136327
 20
85.644615298509
 30
0.0
 40
2.45
100
AcDbArc
 50
339.16524836755
 51
359.6181751394
  0
ARC
  5
21A
330
18
100
AcDbEntity
  8
LEVEL001
  6
Continuous
 62
     3
370
    20
100
AcDbCircle
 10
90.642884136327
 20
83.025866356719
 30
0.0
 40
2.45
100
AcDbArc
 50
0.3818248606029799
 51
21.936801848489
  0
ARC
  5
21B
330
18
100
AcDbEntity
  8
LEVEL001
  6
Continuous
 62
     3
370
    20
100
AcDbCircle
 10
93.121400528124
 20
83.042383684757
 30
0.0
 40
0.028571428571429
100
AcDbArc
 50
270.0
 51
0.0
  0
ARC
  5
21C
330
18
100
AcDbEntity
  8
LEVEL001
  6
Continuous
 62
     3
370
    20
100
AcDbCircle
 10
93.121400528124
 20
83.042383684757
 30
0.0
 40
0.028571428571429
100
AcDbArc
 50
180.381824861
 51
269.9999999999
  0
ARC
  5
21D
330
18
100
AcDbEntity
  8
LEVEL001
  6
Continuous
 62
     3
370
    20
100
AcDbCircle
 10
93.121400528124
 20
85.628097970471
 30
0.0
 40
0.028571428571429
100
AcDbArc
 50
0.0000000003387164
 51
90.0
  0
ARC
  5
21E
330
18
100
AcDbEntity
  8
LEVEL001
  6
Continuous
 62
     3
370
    20
100
AcDbCircle
 10
93.121400528124
 20
85.628097970471
 30
0.0
 40
0.028571428571429
100
AcDbArc
 50
90.000000000104
 51
179.61817513916
  0
LWPOLYLINE
  5
21F
330
18
100
AcDbEntity
  8
LEVEL001
  6
DOT
 62
     1
370
    15
100
AcDbPolyline
 90
        4
 70
     0
 43
0.0
 10
93.114205663867
 20
83.163812256186
 10
93.342777092439
 20
83.163812256186
 10
93.342777092439
 20
83.2495265419
 10
93.114205663865
 20
83.2495265419
  0
LINE
  5
220
330
18
100
AcDbEntity
  8
LEVEL001
  6
DASHDOT
 62
     1
370
    15
100
AcDbLine
 10
93.020202935438
 20
83.206669399042
 30
0.0
 11
93.380546681363
 21
83.206669399042
 31
0.0
  0
LWPOLYLINE
  5
221
330
18
100
AcDbEntity
  8
LEVEL001
  6
DOT
 62
     1
370
    15
100
AcDbPolyline
 90
        4
 70
     0
 43
0.0
 10
93.114205663867
 20
85.506669399041
 10
93.342777092439
 20
85.506669399041
 10
93.342777092439
 20
85.420955113327
 10
93.114205663865
 20
85.420955113327
  0
LINE
  5
222
330
18
100
AcDbEntity
  8
LEVEL001
  6
DASHDOT
 62
     1
370
    15
100
AcDbLine
 10
93.020202935438
 20
85.463812256185
 30
0.0
 11
93.380546681363
 21
85.463812256185
 31
0.0
  0
LINE
  5
223
330
18
100
AcDbEntity
  8
LEVEL001
  6
DASHDOT
 62
     1
370
    15
100
AcDbLine
 10
91.936895357205
 20
84.335240827614
 30
0.0
 11
95.804776850712
 21
84.335240827614
 31
0.0
  0
LINE
  5
224
330
18
100
AcDbEntity
  8
LEVEL001
  6
Continuous
 62
     1
370
    15
100
AcDbLine
 10
92.507114813838
 20
84.335240827614
 30
0.0
 11
84.025371739959
 21
95.996825426603
 31
0.0
  0
CIRCLE
  5
225
330
18
100
AcDbEntity
  8
LEVEL001
  6
Continuous
 62
     1
370
    15
100
AcDbCircle
 10
81.672577790231
 20
99.231691827264
 30
0.0
 40
4.0
  0
LINE
  5
226
330
18
100
AcDbEntity
  8
LEVEL001
  6
Continuous
 62
     1
370
    15
100
AcDbLine
 10
92.507114813838
 20
84.335240827614
 30
0.0
 11
91.392604231302
 21
87.234212557199
 31
0.0
  0
LINE
  5
227
330
18
100
AcDbEntity
  8
LEVEL001
  6
Continuous
 62
     1
370
    15
100
AcDbLine
 10
92.507114813838
 20
84.335240827614
 30
0.0
 11
90.092434471783
 21
86.28856869902
 31
0.0
  0
MTEXT
  5
228
330
18
100
AcDbEntity
  8
LEVEL001
 62
     3
370
    20
100
AcDbMText
 10
78.844150665485
 20
96.403264702518
 30
0.0
 40
5.6568542494924
 41
0.0
 71
     7
 72
     1
  1
\A1;４
 73
     1
 44
1.0
  0
LINE
  5
229
330
18
100
AcDbEntity
  8
LEVEL001
  6
Continuous
 62
     3
370
    20
100
AcDbLine
 10
93.639257670981
 20
253.79254868994
 30
0.0
 11
93.639257670981
 21
252.79952654189
 31
0.0
  0
LINE
  5
22A
330
18
100
AcDbEntity
  8
LEVEL001
  6
Continuous
 62
     3
370
    20
100
AcDbLine
 10
93.753543385267
 20
253.76875004946
 30
0.0
 11
93.753543385267
 21
252.79952654189
 31
0.0
  0
LINE
  5
22B
330
18
100
AcDbEntity
  8
LEVEL001
  6
Continuous
 62
     3
370
    20
100
AcDbLine
 10
93.274971956695
 20
254.05480693074
 30
0.0
 11
93.274971956695
 21
252.79952654189
 31
0.0
  0
LINE
  5
22C
330
18
100
AcDbEntity
  8
LEVEL001
  6
Continuous
 62
     3
370
    20
100
AcDbLine
 10
93.389257670981
 20
253.92904060333
 30
0.0
 11
93.389257670981
 21
252.79952654189
 31
0.0
  0
ARC
  5
22D
330
18
100
AcDbEntity
  8
LEVEL001
  6
Continuous
 62
     3
370
    20
100
AcDbCircle
 10
93.303543385267
 20
252.84901370782
 30
0.0
 40
0.057142857142857
100
AcDbArc
 50
239.99999999999
 51
300.0
  0
ARC
  5
22E
330
18
100
AcDbEntity
  8
LEVEL001
  6
Continuous
 62
     3
370
    20
100
AcDbCircle
 10
93.360686242409
 20
252.84901370782
 30
0.0
 40
0.057142857142864
100
AcDbArc
 50
239.99999999997
 51
300.00000000004
  0
ARC
  5
22F
330
18
100
AcDbEntity
  8
LEVEL001
  6
Continuous
 62
     3
370
    20
100
AcDbCircle
 10
93.360686242409
 20
252.75003937596
 30
0.0
 40
0.057142857142864
100
AcDbArc
 50
59.999999999956
 51
120.00000000003
  0
ARC
  5
230
330
18
100
AcDbEntity
  8
LEVEL001
  6
Continuous
 62
     3
370
    20
100
AcDbCircle
 10
93.667829099552
 20
252.84901370782
 30
0.0
 40
0.057142857142857
100
AcDbArc
 50
239.99999999999
 51
300.0
  0
ARC
  5
231
330
18
100
AcDbEntity
  8
LEVEL001
  6
Continuous
 62
     3
370
    20
100
AcDbCircle
 10
93.724971956695
 20
252.84901370782
 30
0.0
 40
0.057142857142864
100
AcDbArc
 50
240.00000000003
 51
299.99999999997
  0
ARC
  5
232
330
18
100
AcDbEntity
  8
LEVEL001
  6
Continuous
 62
     3
370
    20
100
AcDbCircle
 10
93.724971956695
 20
252.75003937596
 30
0.0
 40
0.057142857142864
100
AcDbArc
 50
60.00000000002701
 51
119.99999999997
  0
ARC
  5
233
330
18
100
AcDbEntity
  8
LEVEL001
  6
Continuous
 62
     3
370
    20
100
AcDbCircle
 10
94.821400528124
 20
254.44952654189
 30
0.0
 40
0.68571428571429
100
AcDbArc
 50
270.0
 51
0.000000000008685
  0
LINE
  5
234
330
18
100
AcDbEntity
  8
LEVEL001
  6
Continuous
 62
     3
370
    20
100
AcDbLine
 10
95.507114813838
 20
254.44952654189
 30
0.0
 11
95.484257670981
 21
254.44952654189
 31
0.0
  0
LINE
  5
235
330
18
100
AcDbEntity
  8
LEVEL001
  6
Continuous
 62
     3
370
    20
100
AcDbLine
 10
95.484257670981
 20
254.44952654189
 30
0.0
 11
94.328543385267
 21
254.44952654189
 31
0.0
  0
LINE
  5
236
330
18
100
AcDbEntity
  8
LEVEL001
  6
Continuous
 62
     3
370
    20
100
AcDbLine
 10
94.821400528124
 20
253.76381225618
 30
0.0
 11
94.328543385267
 21
253.76381225618
 31
0.0
  0
ARC
  5
237
330
18
100
AcDbEntity
  8
LEVEL001
  6
Continuous
 62
     3
370
    20
100
AcDbCircle
 10
93.835686242409
 20
254.44952654189
 30
0.0
 40
0.68571428571429
100
AcDbArc
 50
179.99999999999
 51
270.0
  0
LINE
  5
238
330
18
100
AcDbEntity
  8
LEVEL001
  6
Continuous
 62
     3
370
    20
100
AcDbLine
 10
93.149971956695
 20
254.44952654189
 30
0.0
 11
93.172829099552
 21
254.44952654189
 31
0.0
  0
LINE
  5
239
330
18
100
AcDbEntity
  8
LEVEL001
  6
Continuous
 62
     3
370
    20
100
AcDbLine
 10
93.172829099552
 20
254.44952654189
 30
0.0
 11
94.328543385267
 21
254.44952654189
 31
0.0
  0
LINE
  5
23A
330
18
100
AcDbEntity
  8
LEVEL001
  6
Continuous
 62
     3
370
    20
100
AcDbLine
 10
93.835686242409
 20
253.76381225618
 30
0.0
 11
94.328543385267
 21
253.76381225618
 31
0.0
  0
CIRCLE
  5
23B
330
18
100
AcDbEntity
  8
LEVEL001
  6
Continuous
 62
     3
370
    20
100
AcDbCircle
 10
94.328543385267
 20
254.55683001834
 30
0.0
 40
0.035714285714286
  0
LINE
  5
23C
330
18
100
AcDbEntity
  8
LEVEL001
  6
Continuous
 62
     3
370
    20
100
AcDbLine
 10
93.149971956695
 20
254.44952654189
 30
0.0
 11
95.507114813838
 21
254.44952654189
 31
0.0
  0
LINE
  5
23D
330
18
100
AcDbEntity
  8
LEVEL001
  6
Continuous
 62
     3
370
    20
100
AcDbLine
 10
95.507114813838
 20
254.44952654189
 30
0.0
 11
95.502194823376
 21
254.71876645738
 31
0.0
  0
ARC
  5
23E
330
18
100
AcDbEntity
  8
LEVEL001
  6
Continuous
 62
     3
370
    20
100
AcDbCircle
 10
95.216528229366
 20
254.71354629188
 30
0.0
 40
0.28571428571429
100
AcDbArc
 50
1.0468853298136
 51
11.796205268362
  0
LINE
  5
23F
330
18
100
AcDbEntity
  8
LEVEL001
  6
Continuous
 62
     3
370
    20
100
AcDbLine
 10
93.149971956695
 20
254.44952654189
 30
0.0
 11
93.154891947157
 21
254.71876645737
 31
0.0
  0
ARC
  5
240
330
18
100
AcDbEntity
  8
LEVEL001
  6
Continuous
 62
     3
370
    20
100
AcDbCircle
 10
93.440558541167
 20
254.71354629187
 30
0.0
 40
0.28571428571429
100
AcDbArc
 50
168.20379473185
 51
178.95311467029
  0
ARC
  5
241
330
18
100
AcDbEntity
  8
LEVEL001
  6
Continuous
 62
     3
370
    20
100
AcDbCircle
 10
94.328543385267
 20
254.52809797046
 30
0.0
 40
1.1928571428571
100
AcDbArc
 50
11.7962052684
 51
168.20379473185
  0
LWPOLYLINE
  5
242
330
18
100
AcDbEntity
  8
LEVEL001
  6
Continuous
 62
     3
370
    20
100
AcDbPolyline
 90
        4
 70
     1
 43
0.0
 10
93.799971956695
 20
253.76381225618
 10
93.799971956695
 20
253.62095511332
 10
94.857114813838
 20
253.62095511332
 10
94.857114813838
 20
253.76381225618
  0
POINT
  5
243
330
18
100
AcDbEntity
  8
LEVEL001
 62
     3
100
AcDbPoint
 10
94.328543385267
 20
253.62095511332
 30
0.0
  0
LINE
  5
244
330
18
100
AcDbEntity
  8
LEVEL001
  6
Continuous
 62
     1
370
    15
100
AcDbLine
 10
90.507114813838
 20
84.335240827614
 30
0.0
 11
72.576683561059
 21
84.335240827614
 31
0.0
  0
LINE
  5
245
330
18
100
AcDbEntity
  8
LEVEL001
  6
Continuous
 62
     1
370
    15
100
AcDbLine
 10
91.149971956695
 20
67.906669399043
 30
0.0
 11
72.576683561059
 21
67.906669399043
 31
0.0
  0
LINE
  5
246
330
18
100
AcDbEntity
  8
LEVEL001
  6
Continuous
 62
     1
370
    15
100
AcDbLine
 10
74.576683561059
 20
84.335240827614
 30
0.0
 11
74.576683561059
 21
76.120955113328
 31
0.0
  0
LINE
  5
247
330
18
100
AcDbEntity
  8
LEVEL001
  6
Continuous
 62
     1
370
    15
100
AcDbLine
 10
74.576683561059
 20
67.906669399043
 30
0.0
 11
74.576683561059
 21
76.120955113328
 31
0.0
  0
LINE
  5
248
330
18
100
AcDbEntity
  8
LEVEL001
  6
Continuous
 62
     1
370
    15
100
AcDbLine
 10
74.576683561059
 20
84.335240827614
 30
0.0
 11
73.772835983766
 21
81.335240827614
 31
0.0
  0
LINE
  5
249
330
18
100
AcDbEntity
  8
LEVEL001
  6
Continuous
 62
     1
370
    15
100
AcDbLine
 10
74.576683561059
 20
84.335240827614
 30
0.0
 11
75.380531138352
 21
81.335240827614
 31
0.0
  0
LINE
  5
24A
330
18
100
AcDbEntity
  8
LEVEL001
  6
Continuous
 62
     1
370
    15
100
AcDbLine
 10
74.576683561059
 20
67.906669399043
 30
0.0
 11
75.380531138352
 21
70.906669399043
 31
0.0
  0
LINE
  5
24B
330
18
100
AcDbEntity
  8
LEVEL001
  6
Continuous
 62
     1
370
    15
100
AcDbLine
 10
74.576683561059
 20
67.906669399043
 30
0.0
 11
73.772835983766
 21
70.906669399043
 31
0.0
  0
MTEXT
  5
24C
330
18
100
AcDbEntity
  8
LEVEL001
 62
     3
370
    20
100
AcDbMText
 10
72.862397846773
 20
76.120955113328
 30
0.0
 40
4.0
 41
0.0
 71
     8
 72
     1
  1
\A1;1150
 11
0.0
 21
1.0
 31
0.0
 73
     1
 44
1.0
  0
LINE
  5
24D
330
18
100
AcDbEntity
  8
LEVEL001
  6
Continuous
 62
     3
370
    20
100
AcDbLine
 10
178.09088090267
 20
48.447769425526
 30
0.0
 11
220.09088090267
 21
48.447769425526
 31
0.0
  0
LINE
  5
24E
330
18
100
AcDbEntity
  8
LEVEL001
  6
DASHDOT
 62
     1
370
    15
100
AcDbLine
 10
198.71151698717
 20
130.45980299969
 30
0.0
 11
198.71151698717
 21
61.929886627129
 31
0.0
  0
LINE
  5
24F
330
18
100
AcDbEntity
  8
LEVEL001
  6
Continuous
 62
     3
370
    20
100
AcDbLine
 10
215.21151698717
 20
126.48147126784
 30
0.0
 11
215.21151698717
 21
66.481471267841
 31
0.0
  0
LINE
  5
250
330
18
100
AcDbEntity
  8
LEVEL001
  6
Continuous
 62
     3
370
    20
100
AcDbLine
 10
182.21151698717
 20
126.48147126784
 30
0.0
 11
182.21151698717
 21
66.481471267841
 31
0.0
  0
ARC
  5
251
330
18
100
AcDbEntity
  8
LEVEL001
  6
Continuous
 62
     3
370
    20
100
AcDbCircle
 10
206.96151698717
 20
112.1920521054
 30
0.0
 40
16.5
100
AcDbArc
 50
59.99999999999801
 51
120.0
  0
ARC
  5
252
330
18
100
AcDbEntity
  8
LEVEL001
  6
Continuous
 62
     3
370
    20
100
AcDbCircle
 10
190.46151698717
 20
140.77089043028
 30
0.0
 40
16.5
100
AcDbArc
 50
240.0
 51
300.0
  0
ARC
  5
253
330
18
100
AcDbEntity
  8
LEVEL001
  6
Continuous
 62
     3
370
    20
100
AcDbCircle
 10
190.46151698717
 20
112.1920521054
 30
0.0
 40
16.5
100
AcDbArc
 50
59.99999999999901
 51
120.0
  0
ARC
  5
254
330
18
100
AcDbEntity
  8
LEVEL001
  6
Continuous
 62
     3
370
    20
100
AcDbCircle
 10
190.46151698717
 20
112.1920521054
 30
0.0
 40
15.9
100
AcDbArc
 50
61.320141937695
 51
118.67985806231
  0
ARC
  5
255
330
18
100
AcDbEntity
  8
LEVEL001
  6
Continuous
 62
     3
370
    20
100
AcDbCircle
 10
206.96151698717
 20
52.192052105398
 30
0.0
 40
16.5
100
AcDbArc
 50
59.99999999999801
 51
120.0
  0
ARC
  5
256
330
18
100
AcDbEntity
  8
LEVEL001
  6
Continuous
 62
     3
370
    20
100
AcDbCircle
 10
190.46151698717
 20
80.770890430284
 30
0.0
 40
16.5
100
AcDbArc
 50
240.0
 51
300.0
  0
ARC
  5
257
330
18
100
AcDbEntity
  8
LEVEL001
  6
Continuous
 62
     3
370
    20
100
AcDbCircle
 10
206.96151698717
 20
80.770890430284
 30
0.0
 40
16.5
100
AcDbArc
 50
240.0
 51
300.0
  0
ARC
  5
258
330
18
100
AcDbEntity
  8
LEVEL001
  6
Continuous
 62
     3
370
    20
100
AcDbCircle
 10
206.96151698717
 20
80.770890430284
 30
0.0
 40
15.9
100
AcDbArc
 50
241.32014193768
 51
298.67985806232
  0
LINE
  5
259
330
18
100
AcDbEntity
  8
LEVEL001
  6
DASHDOT
 62
     1
370
    15
100
AcDbLine
 10
169.78020518271
 20
96.481471267841
 30
0.0
 11
217.12674070546
 21
96.481471267841
 31
0.0
  0
TEXT
  5
25A
330
18
100
AcDbEntity
  8
LEVEL001
 62
     3
370
    20
100
AcDbText
 10
192.84088090267
 20
43.447769425526
 30
0.0
 40
5.0
  1
Ｓ＝１：５
 41
0.5
 72
     5
 11
205.34088090267
 21
43.447769425526
 31
0.0
100
AcDbText
  0
TEXT
  5
25B
330
18
100
AcDbEntity
  8
LEVEL001
 62
     3
370
    20
100
AcDbText
 10
179.09088090267
 20
49.447769425526
 30
0.0
 40
5.0
  1
ロープ掛け部詳細
 72
     5
 11
219.09088090267
 21
49.447769425526
 31
0.0
100
AcDbText
  0
LWPOLYLINE
  5
25C
330
18
100
AcDbEntity
  8
LEVEL001
  6
Continuous
 62
     3
370
    20
100
AcDbPolyline
 90
        4
 70
     1
 43
0.0
 10
189.51522200923
 20
221.04623668676
 10
189.51522200923
 20
219.04623668676
 10
204.31522200923
 20
219.04623668676
 10
204.31522200923
 20
221.04623668676
  0
LINE
  5
25D
330
18
100
AcDbEntity
  8
LEVEL001
  6
DOT
 62
     1
370
    15
100
AcDbLine
 10
190.16522200923
 20
213.24623668676
 30
0.0
 11
203.66522200923
 21
213.24623668676
 31
0.0
  0
LINE
  5
25E
330
18
100
AcDbEntity
  8
LEVEL001
  6
DOT
 62
     1
370
    15
100
AcDbLine
 10
203.66522200923
 20
219.04623668676
 30
0.0
 11
203.66522200923
 21
213.24623668676
 31
0.0
  0
LINE
  5
25F
330
18
100
AcDbEntity
  8
LEVEL001
  6
DOT
 62
     1
370
    15
100
AcDbLine
 10
190.16522200923
 20
219.04623668676
 30
0.0
 11
190.16522200923
 21
213.24623668676
 31
0.0
  0
LINE
  5
260
330
18
100
AcDbEntity
  8
LEVEL001
  6
DASHDOT
 62
     1
370
    15
100
AcDbLine
 10
185.51522200923
 20
236.87167089251
 30
0.0
 11
185.51522200923
 21
234.02080248101
 31
0.0
  0
LINE
  5
261
330
18
100
AcDbEntity
  8
LEVEL001
  6
DASHDOT
 62
     1
370
    15
100
AcDbLine
 10
186.97890655274
 20
235.44623668676
 30
0.0
 11
184.05153746571
 21
235.44623668676
 31
0.0
  0
LINE
  5
262
330
18
100
AcDbEntity
  8
LEVEL001
  6
DOT
 62
     1
370
    15
100
AcDbLine
 10
184.31522200923
 20
228.64623668676
 30
0.0
 11
191.31522200923
 21
228.64623668676
 31
0.0
  0
ARC
  5
263
330
18
100
AcDbEntity
  8
LEVEL001
  6
DOT
 62
     1
370
    15
100
AcDbCircle
 10
191.31522200923
 20
227.64623668676
 30
0.0
 40
1.0
100
AcDbArc
 50
0.0
 51
90.0
  0
LINE
  5
264
330
18
100
AcDbEntity
  8
LEVEL001
  6
DOT
 62
     1
370
    15
100
AcDbLine
 10
201.51522200923
 20
222.64623668676
 30
0.0
 11
192.31522200923
 21
222.64623668676
 31
0.0
  0
LINE
  5
265
330
18
100
AcDbEntity
  8
LEVEL001
  6
DOT
 62
     1
370
    15
100
AcDbLine
 10
192.31522200923
 20
227.64623668676
 30
0.0
 11
192.31522200923
 21
222.04623668676
 31
0.0
  0
LINE
  5
266
330
18
100
AcDbEntity
  8
LEVEL001
  6
DOT
 62
     1
370
    15
100
AcDbLine
 10
193.41522200923
 20
222.64623668676
 30
0.0
 11
193.41522200923
 21
222.04623668676
 31
0.0
  0
LINE
  5
267
330
18
100
AcDbEntity
  8
LEVEL001
  6
DOT
 62
     1
370
    15
100
AcDbLine
 10
194.41522200923
 20
222.64623668676
 30
0.0
 11
194.41522200923
 21
222.04623668676
 31
0.0
  0
LINE
  5
268
330
18
100
AcDbEntity
  8
LEVEL001
  6
DOT
 62
     1
370
    15
100
AcDbLine
 10
199.41522200923
 20
222.64623668676
 30
0.0
 11
199.41522200923
 21
222.04623668676
 31
0.0
  0
LINE
  5
269
330
18
100
AcDbEntity
  8
LEVEL001
  6
DOT
 62
     1
370
    15
100
AcDbLine
 10
200.41522200923
 20
222.64623668676
 30
0.0
 11
200.41522200923
 21
222.04623668676
 31
0.0
  0
LINE
  5
26A
330
18
100
AcDbEntity
  8
LEVEL001
  6
DOT
 62
     1
370
    15
100
AcDbLine
 10
201.51522200923
 20
240.04623668676
 30
0.0
 11
201.51522200923
 21
222.04623668676
 31
0.0
  0
LINE
  5
26B
330
18
100
AcDbEntity
  8
LEVEL001
  6
DOT
 62
     1
370
    15
100
AcDbLine
 10
192.31522200923
 20
222.04623668676
 30
0.0
 11
201.51522200923
 21
222.04623668676
 31
0.0
  0
LINE
  5
26C
330
18
100
AcDbEntity
  8
LEVEL001
  6
DOT
 62
     1
370
    15
100
AcDbLine
 10
201.51522200923
 20
240.04623668676
 30
0.0
 11
183.71522200923
 21
240.04623668676
 31
0.0
  0
LINE
  5
26D
330
18
100
AcDbEntity
  8
LEVEL001
  6
DOT
 62
     1
370
    15
100
AcDbLine
 10
201.51522200923
 20
239.44623668676
 30
0.0
 11
183.71522200923
 21
239.44623668676
 31
0.0
  0
LINE
  5
26E
330
18
100
AcDbEntity
  8
LEVEL001
  6
DOT
 62
     1
370
    15
100
AcDbLine
 10
195.41522200923
 20
239.44623668676
 30
0.0
 11
195.41522200923
 21
240.04623668676
 31
0.0
  0
LINE
  5
26F
330
18
100
AcDbEntity
  8
LEVEL001
  6
DOT
 62
     1
370
    15
100
AcDbLine
 10
198.41522200923
 20
240.04623668676
 30
0.0
 11
198.41522200923
 21
239.44623668676
 31
0.0
  0
ARC
  5
270
330
18
100
AcDbEntity
  8
LEVEL001
  6
DOT
 62
     1
370
    15
100
AcDbCircle
 10
184.31522200923
 20
229.24623668676
 30
0.0
 40
0.6
100
AcDbArc
 50
180.0
 51
269.99999999999
  0
LINE
  5
271
330
18
100
AcDbEntity
  8
LEVEL001
  6
DOT
 62
     1
370
    15
100
AcDbLine
 10
183.71522200923
 20
229.24623668676
 30
0.0
 11
183.71522200923
 21
232.24608093002
 31
0.0
  0
CIRCLE
  5
272
330
18
100
AcDbEntity
  8
LEVEL001
  6
DOT
 62
     1
370
    15
100
AcDbCircle
 10
185.51522200923
 20
235.44623668676
 30
0.0
 40
0.62
  0
CIRCLE
  5
273
330
18
100
AcDbEntity
  8
LEVEL001
  6
DOT
 62
     1
370
    15
100
AcDbCircle
 10
187.91522200923
 20
237.22623668676
 30
0.0
 40
0.62
  0
CIRCLE
  5
274
330
18
100
AcDbEntity
  8
LEVEL001
  6
DOT
 62
     1
370
    15
100
AcDbCircle
 10
195.71522200923
 20
237.22623668676
 30
0.0
 40
0.62
  0
LINE
  5
275
330
18
100
AcDbEntity
  8
LEVEL001
  6
DOT
 62
     1
370
    15
100
AcDbLine
 10
183.71522200923
 20
240.04623668676
 30
0.0
 11
183.71522200923
 21
232.24608093002
 31
0.0
  0
CIRCLE
  5
276
330
18
100
AcDbEntity
  8
LEVEL001
  6
DOT
 62
     1
370
    15
100
AcDbCircle
 10
185.51522200923
 20
235.44623668676
 30
0.0
 40
1.75
  0
LWPOLYLINE
  5
277
330
18
100
AcDbEntity
  8
LEVEL001
  6
Continuous
 62
     3
370
    20
100
AcDbPolyline
 90
        4
 70
     0
 43
0.0
 10
204.41522200923
 20
189.04623668676
 10
204.41522200923
 20
219.04623668676
 10
189.41522200923
 20
219.04623668676
 10
189.41522200923
 20
189.04623668676
  0
ARC
  5
278
330
18
100
AcDbEntity
  8
LEVEL001
  6
Continuous
 62
     3
370
    20
100
AcDbCircle
 10
193.16522200923
 20
195.54142721514
 30
0.0
 40
7.5
100
AcDbArc
 50
240.0
 51
300.0
  0
ARC
  5
279
330
18
100
AcDbEntity
  8
LEVEL001
  6
Continuous
 62
     3
370
    20
100
AcDbCircle
 10
200.66522200923
 20
195.54142721514
 30
0.0
 40
7.5
100
AcDbArc
 50
240.0
 51
300.0
  0
ARC
  5
27A
330
18
100
AcDbEntity
  8
LEVEL001
  6
Continuous
 62
     3
370
    20
100
AcDbCircle
 10
200.66522200923
 20
182.55104615838
 30
0.0
 40
7.5
100
AcDbArc
 50
59.999999999996
 51
120.0
  0
LINE
  5
27B
330
18
100
AcDbEntity
  8
LEVEL001
  6
DASHDOT
 62
     1
370
    15
100
AcDbLine
 10
196.91522200923
 20
250.63540852908
 30
0.0
 11
196.91522200923
 21
184.04623668676
 31
0.0
  0
LINE
  5
27C
330
18
100
AcDbEntity
  8
LEVEL001
  6
DOT
 62
     2
370
    20
100
AcDbLine
 10
187.26522200923
 20
235.44623668676
 30
0.0
 11
187.26522200923
 21
221.44854675939
 31
0.0
  0
LINE
  5
27D
330
18
100
AcDbEntity
  8
LEVEL001
  6
DOT
 62
     2
370
    20
100
AcDbLine
 10
188.86522200923
 20
235.44623668676
 30
0.0
 11
188.86522200923
 21
221.11536579266
 31
0.0
  0
LINE
  5
27E
330
18
100
AcDbEntity
  8
LEVEL001
  6
DOT
 62
     2
370
    20
100
AcDbLine
 10
182.16522200923
 20
235.44623668676
 30
0.0
 11
182.16522200923
 21
225.12016213062
 31
0.0
  0
LINE
  5
27F
330
18
100
AcDbEntity
  8
LEVEL001
  6
DOT
 62
     2
370
    20
100
AcDbLine
 10
183.76522200923
 20
235.44623668676
 30
0.0
 11
183.76522200923
 21
223.35943354684
 31
0.0
  0
ARC
  5
280
330
18
100
AcDbEntity
  8
LEVEL001
  6
DOT
 62
     2
370
    20
100
AcDbCircle
 10
185.51522200923
 20
235.44623668676
 30
0.0
 40
1.7500000000001
100
AcDbArc
 50
0.0
 51
180.0
  0
ARC
  5
281
330
18
100
AcDbEntity
  8
LEVEL001
  6
DOT
 62
     2
370
    20
100
AcDbCircle
 10
185.51522200923
 20
235.44623668676
 30
0.0
 40
3.3500000000001
100
AcDbArc
 50
0.0
 51
180.0
  0
LINE
  5
282
330
18
100
AcDbEntity
  8
LEVEL001
  6
Continuous
 62
     3
370
    20
100
AcDbLine
 10
187.26522200923
 20
221.44854675939
 30
0.0
 11
187.26522200923
 21
207.54623668676
 31
0.0
  0
LINE
  5
283
330
18
100
AcDbEntity
  8
LEVEL001
  6
Continuous
 62
     3
370
    20
100
AcDbLine
 10
188.86522200923
 20
221.11536579266
 30
0.0
 11
188.86522200923
 21
207.54623668676
 31
0.0
  0
LINE
  5
284
330
18
100
AcDbEntity
  8
LEVEL001
  6
Continuous
 62
     3
370
    20
100
AcDbLine
 10
182.16522200923
 20
225.12016213062
 30
0.0
 11
182.16522200923
 21
207.54623668676
 31
0.0
  0
LINE
  5
285
330
18
100
AcDbEntity
  8
LEVEL001
  6
Continuous
 62
     3
370
    20
100
AcDbLine
 10
183.76522200923
 20
223.35943354684
 30
0.0
 11
183.76522200923
 21
207.54623668676
 31
0.0
  0
ARC
  5
286
330
18
100
AcDbEntity
  8
LEVEL001
  6
Continuous
 62
     3
370
    20
100
AcDbCircle
 10
185.51522200922
 20
192.39623668676
 30
0.0
 40
1.7500000000001
100
AcDbArc
 50
179.99999999999
 51
0.0
  0
ARC
  5
287
330
18
100
AcDbEntity
  8
LEVEL001
  6
Continuous
 62
     3
370
    20
100
AcDbCircle
 10
185.51522200922
 20
192.39623668676
 30
0.0
 40
3.3500000000001
100
AcDbArc
 50
179.99999999999
 51
0.0
  0
LINE
  5
288
330
18
100
AcDbEntity
  8
LEVEL001
  6
Continuous
 62
     3
370
    20
100
AcDbLine
 10
187.26522200922
 20
192.39623668676
 30
0.0
 11
187.26522200923
 21
205.54623668676
 31
0.0
  0
LINE
  5
289
330
18
100
AcDbEntity
  8
LEVEL001
  6
Continuous
 62
     3
370
    20
100
AcDbLine
 10
188.86522200922
 20
192.39623668676
 30
0.0
 11
188.86522200923
 21
205.54623668676
 31
0.0
  0
LINE
  5
28A
330
18
100
AcDbEntity
  8
LEVEL001
  6
Continuous
 62
     3
370
    20
100
AcDbLine
 10
182.16522200922
 20
192.39623668676
 30
0.0
 11
182.16522200923
 21
205.54623668676
 31
0.0
  0
LINE
  5
28B
330
18
100
AcDbEntity
  8
LEVEL001
  6
Continuous
 62
     3
370
    20
100
AcDbLine
 10
183.76522200922
 20
192.39623668676
 30
0.0
 11
183.76522200923
 21
205.54623668676
 31
0.0
  0
ARC
  5
28C
330
18
100
AcDbEntity
  8
LEVEL001
  6
Continuous
 62
     3
370
    20
100
AcDbCircle
 10
183.36522200923
 20
204.85341636373
 30
0.0
 40
0.79999999999659
100
AcDbArc
 50
60.000000000002
 51
120.0
  0
ARC
  5
28D
330
18
100
AcDbEntity
  8
LEVEL001
  6
Continuous
 62
     3
370
    20
100
AcDbCircle
 10
182.56522200923
 20
204.85341636373
 30
0.0
 40
0.8000000000035
100
AcDbArc
 50
60.00000000000099
 51
119.99999999999
  0
ARC
  5
28E
330
18
100
AcDbEntity
  8
LEVEL001
  6
Continuous
 62
     3
370
    20
100
AcDbCircle
 10
182.56522200923
 20
206.23905700979
 30
0.0
 40
0.8000000000035
100
AcDbArc
 50
240.0
 51
299.99999999999
  0
ARC
  5
28F
330
18
100
AcDbEntity
  8
LEVEL001
  6
Continuous
 62
     3
370
    20
100
AcDbCircle
 10
182.56522200923
 20
208.23905700979
 30
0.0
 40
0.8
100
AcDbArc
 50
240.0
 51
300.0
  0
ARC
  5
290
330
18
100
AcDbEntity
  8
LEVEL001
  6
Continuous
 62
     3
370
    20
100
AcDbCircle
 10
183.36522200923
 20
208.23905700979
 30
0.0
 40
0.80000000000009
100
AcDbArc
 50
239.99999999998
 51
299.99999999999
  0
ARC
  5
291
330
18
100
AcDbEntity
  8
LEVEL001
  6
Continuous
 62
     3
370
    20
100
AcDbCircle
 10
183.36522200923
 20
206.85341636373
 30
0.0
 40
0.80000000000009
100
AcDbArc
 50
59.99999999999098
 51
120.0
  0
ARC
  5
292
330
18
100
AcDbEntity
  8
LEVEL001
  6
Continuous
 62
     3
370
    20
100
AcDbCircle
 10
188.46522200923
 20
204.85341636373
 30
0.0
 40
0.79999999999659
100
AcDbArc
 50
60.000000000002
 51
120.0
  0
ARC
  5
293
330
18
100
AcDbEntity
  8
LEVEL001
  6
Continuous
 62
     3
370
    20
100
AcDbCircle
 10
187.66522200923
 20
204.85341636373
 30
0.0
 40
0.8000000000035
100
AcDbArc
 50
59.99999999999098
 51
120.0
  0
ARC
  5
294
330
18
100
AcDbEntity
  8
LEVEL001
  6
Continuous
 62
     3
370
    20
100
AcDbCircle
 10
187.66522200923
 20
206.23905700979
 30
0.0
 40
0.8000000000035
100
AcDbArc
 50
239.99999999999
 51
300.0
  0
ARC
  5
295
330
18
100
AcDbEntity
  8
LEVEL001
  6
Continuous
 62
     3
370
    20
100
AcDbCircle
 10
187.66522200923
 20
208.23905700979
 30
0.0
 40
0.8
100
AcDbArc
 50
239.99999999999
 51
300.0
  0
ARC
  5
296
330
18
100
AcDbEntity
  8
LEVEL001
  6
Continuous
 62
     3
370
    20
100
AcDbCircle
 10
188.46522200923
 20
208.23905700979
 30
0.0
 40
0.80000000000009
100
AcDbArc
 50
240.0
 51
299.9999999999799
  0
ARC
  5
297
330
18
100
AcDbEntity
  8
LEVEL001
  6
Continuous
 62
     3
370
    20
100
AcDbCircle
 10
188.46522200923
 20
206.85341636373
 30
0.0
 40
0.80000000000009
100
AcDbArc
 50
59.99999999999801
 51
119.99999999998
  0
LINE
  5
298
330
18
100
AcDbEntity
  8
LEVEL001
  6
DASHDOT
 62
     1
370
    15
100
AcDbLine
 10
205.48237256375
 20
216.04623668676
 30
0.0
 11
202.53093772854
 21
216.04623668676
 31
0.0
  0
LINE
  5
299
330
18
100
AcDbEntity
  8
LEVEL001
  6
DASHDOT
 62
     1
370
    15
100
AcDbLine
 10
193.1652220092
 20
217.21211905174
 30
0.0
 11
193.1652220092
 21
214.88035432178
 31
0.0
  0
LINE
  5
29A
330
18
100
AcDbEntity
  8
LEVEL001
  6
DASHDOT
 62
     1
370
    15
100
AcDbLine
 10
192.19684796459
 20
216.04623668676
 30
0.0
 11
194.13359605381
 21
216.04623668676
 31
0.0
  0
ARC
  5
29B
330
18
100
AcDbEntity
  8
LEVEL001
  6
DOT
 62
     1
370
    15
100
AcDbCircle
 10
196.91522200923
 20
231.74623668676
 30
0.0
 40
16.4
100
AcDbArc
 50
10.548276958764
 51
169.45172304124
  0
LINE
  5
29C
330
18
100
AcDbEntity
  8
LEVEL001
  6
DASHDOT
 62
     1
370
    15
100
AcDbLine
 10
195.81522200923
 20
232.14848535701
 30
0.0
 11
198.01522200923
 21
232.14848535701
 31
0.0
  0
CIRCLE
  5
29D
330
18
100
AcDbEntity
  8
LEVEL001
  6
Continuous
 62
     3
370
    20
100
AcDbCircle
 10
196.91522200923
 20
232.14848535701
 30
0.0
 40
0.5
  0
LINE
  5
29E
330
18
100
AcDbEntity
  8
LEVEL001
  6
Continuous
 62
     3
370
    20
100
AcDbLine
 10
180.41522200923
 20
230.64623668676
 30
0.0
 11
213.41522200923
 21
230.64623668676
 31
0.0
  0
LINE
  5
29F
330
18
100
AcDbEntity
  8
LEVEL001
  6
DOT
 62
     1
370
    15
100
AcDbLine
 10
213.03807854652
 20
234.74848535702
 30
0.0
 11
213.11517192458
 21
230.64623668676
 31
0.0
  0
LINE
  5
2A0
330
18
100
AcDbEntity
  8
LEVEL001
  6
DOT
 62
     1
370
    15
100
AcDbLine
 10
180.79236547194
 20
234.74848535702
 30
0.0
 11
180.71527209388
 21
230.64623668676
 31
0.0
  0
LINE
  5
2A1
330
18
100
AcDbEntity
  8
LEVEL001
  6
Continuous
 62
     3
370
    20
100
AcDbLine
 10
213.41522200923
 20
230.64623668676
 30
0.0
 11
213.34634214276
 21
234.41559550356
 31
0.0
  0
ARC
  5
2A2
330
18
100
AcDbEntity
  8
LEVEL001
  6
Continuous
 62
     3
370
    20
100
AcDbCircle
 10
209.34700982662
 20
234.34251318657
 30
0.0
 40
4.0
100
AcDbArc
 50
1.0468853298468
 51
11.796205268401
  0
LINE
  5
2A3
330
18
100
AcDbEntity
  8
LEVEL001
  6
Continuous
 62
     3
370
    20
100
AcDbLine
 10
180.41522200923
 20
230.64623668676
 30
0.0
 11
180.48410187569
 21
234.4155955035
 31
0.0
  0
ARC
  5
2A4
330
18
100
AcDbEntity
  8
LEVEL001
  6
Continuous
 62
     3
370
    20
100
AcDbCircle
 10
184.48343419183
 20
234.34251318652
 30
0.0
 40
4.0
100
AcDbArc
 50
168.20379473185
 51
178.95311467031
  0
ARC
  5
2A5
330
18
100
AcDbEntity
  8
LEVEL001
  6
Continuous
 62
     3
370
    20
100
AcDbCircle
 10
196.91522200923
 20
231.74623668676
 30
0.0
 40
16.7
100
AcDbArc
 50
11.796205268404
 51
168.20379473184
  0
ARC
  5
2A6
330
18
100
AcDbEntity
  8
LEVEL001
  6
Continuous
 62
     3
370
    20
100
AcDbCircle
 10
203.81522200923
 20
230.64623668676
 30
0.0
 40
9.6
100
AcDbArc
 50
270.0
 51
0.0000000000002714
  0
LINE
  5
2A7
330
18
100
AcDbEntity
  8
LEVEL001
  6
Continuous
 62
     3
370
    20
100
AcDbLine
 10
213.41522200923
 20
230.64623668676
 30
0.0
 11
213.09522200923
 21
230.64623668676
 31
0.0
  0
POINT
  5
2A8
330
18
100
AcDbEntity
  8
LEVEL001
 62
     1
100
AcDbPoint
 10
199.91522200923
 20
222.04623668676
 30
0.0
  0
LINE
  5
2A9
330
18
100
AcDbEntity
  8
LEVEL001
  6
DOT
 62
     1
370
    15
100
AcDbLine
 10
196.91522200923
 20
222.04623668676
 30
0.0
 11
203.81522200923
 21
222.04623668676
 31
0.0
  0
ARC
  5
2AA
330
18
100
AcDbEntity
  8
LEVEL001
  6
DOT
 62
     1
370
    15
100
AcDbCircle
 10
203.81522200923
 20
230.64623668676
 30
0.0
 40
8.6
100
AcDbArc
 50
270.0
 51
0.0000000000006059
  0
LINE
  5
2AB
330
18
100
AcDbEntity
  8
LEVEL001
  6
DOT
 62
     1
370
    15
100
AcDbLine
 10
212.61522200923
 20
233.64623668676
 30
0.0
 11
212.41522200923
 21
233.44623668676
 31
0.0
  0
LINE
  5
2AC
330
18
100
AcDbEntity
  8
LEVEL001
  6
DOT
 62
     1
370
    15
100
AcDbLine
 10
212.41522200923
 20
230.64623668676
 30
0.0
 11
212.41522200923
 21
233.44623668676
 31
0.0
  0
LINE
  5
2AD
330
18
100
AcDbEntity
  8
LEVEL001
  6
Continuous
 62
     3
370
    20
100
AcDbLine
 10
213.09522200923
 20
230.64623668676
 30
0.0
 11
196.91522200923
 21
230.64623668676
 31
0.0
  0
LINE
  5
2AE
330
18
100
AcDbEntity
  8
LEVEL001
  6
Continuous
 62
     3
370
    20
100
AcDbLine
 10
203.81522200923
 20
221.04623668676
 30
0.0
 11
196.91522200923
 21
221.04623668676
 31
0.0
  0
LINE
  5
2AF
330
18
100
AcDbEntity
  8
LEVEL001
  6
DASHDOT
 62
     1
370
    15
100
AcDbLine
 10
185.51522200923
 20
224.52169588765
 30
0.0
 11
185.51522200923
 21
221.04884120673
 31
0.0
  0
POINT
  5
2B0
330
18
100
AcDbEntity
  8
LEVEL001
 62
     1
100
AcDbPoint
 10
198.41522200923
 20
222.04623668676
 30
0.0
  0
LINE
  5
2B1
330
18
100
AcDbEntity
  8
LEVEL001
  6
DASHDOT
 62
     1
370
    15
100
AcDbLine
 10
196.91522200923
 20
250.63540852908
 30
0.0
 11
196.91522200923
 21
207.04623668676
 31
0.0
  0
ARC
  5
2B2
330
18
100
AcDbEntity
  8
LEVEL001
  6
Continuous
 62
     3
370
    20
100
AcDbCircle
 10
190.01522200923
 20
230.64623668676
 30
0.0
 40
9.6
100
AcDbArc
 50
180.0
 51
270.0
  0
LINE
  5
2B3
330
18
100
AcDbEntity
  8
LEVEL001
  6
Continuous
 62
     3
370
    20
100
AcDbLine
 10
180.41522200923
 20
230.64623668676
 30
0.0
 11
180.73522200923
 21
230.64623668676
 31
0.0
  0
POINT
  5
2B4
330
18
100
AcDbEntity
  8
LEVEL001
 62
     1
100
AcDbPoint
 10
193.91522200923
 20
222.04623668676
 30
0.0
  0
LINE
  5
2B5
330
18
100
AcDbEntity
  8
LEVEL001
  6
DOT
 62
     1
370
    15
100
AcDbLine
 10
196.91522200923
 20
222.04623668676
 30
0.0
 11
190.01522200923
 21
222.04623668676
 31
0.0
  0
ARC
  5
2B6
330
18
100
AcDbEntity
  8
LEVEL001
  6
DOT
 62
     1
370
    15
100
AcDbCircle
 10
190.01522200923
 20
230.64623668676
 30
0.0
 40
8.6
100
AcDbArc
 50
180.0
 51
270.0
  0
LINE
  5
2B7
330
18
100
AcDbEntity
  8
LEVEL001
  6
DOT
 62
     1
370
    15
100
AcDbLine
 10
181.21522200923
 20
233.64623668676
 30
0.0
 11
181.41522200923
 21
233.44623668676
 31
0.0
  0
LINE
  5
2B8
330
18
100
AcDbEntity
  8
LEVEL001
  6
DOT
 62
     1
370
    15
100
AcDbLine
 10
181.41522200923
 20
230.64623668676
 30
0.0
 11
181.41522200923
 21
233.44623668676
 31
0.0
  0
LINE
  5
2B9
330
18
100
AcDbEntity
  8
LEVEL001
  6
Continuous
 62
     3
370
    20
100
AcDbLine
 10
180.73522200923
 20
230.64623668676
 30
0.0
 11
196.91522200923
 21
230.64623668676
 31
0.0
  0
LINE
  5
2BA
330
18
100
AcDbEntity
  8
LEVEL001
  6
Continuous
 62
     3
370
    20
100
AcDbLine
 10
190.01522200923
 20
221.04623668676
 30
0.0
 11
196.91522200923
 21
221.04623668676
 31
0.0
  0
POINT
  5
2BB
330
18
100
AcDbEntity
  8
LEVEL001
 62
     1
100
AcDbPoint
 10
195.41522200923
 20
222.04623668676
 30
0.0
  0
ARC
  5
2BC
330
18
100
AcDbEntity
  8
LEVEL001
  6
DOT
 62
     1
370
    15
100
AcDbCircle
 10
181.66522200923
 20
226.32911959314
 30
0.0
 40
0.2
100
AcDbArc
 50
207.33986850855
 51
0.0
  0
LINE
  5
2BD
330
18
100
AcDbEntity
  8
LEVEL001
  6
DOT
 62
     1
370
    15
100
AcDbLine
 10
181.86522200923
 20
227.86819781014
 30
0.0
 11
181.86522200923
 21
226.32911959314
 31
0.0
  0
ARC
  5
2BE
330
18
100
AcDbEntity
  8
LEVEL001
  6
DOT
 62
     1
370
    15
100
AcDbCircle
 10
189.36522200923
 20
221.26873702
 30
0.0
 40
0.2
100
AcDbArc
 50
179.99999999999
 51
266.03489359892
  0
LINE
  5
2BF
330
18
100
AcDbEntity
  8
LEVEL001
  6
DOT
 62
     1
370
    15
100
AcDbLine
 10
189.16522200923
 20
221.87027520097
 30
0.0
 11
189.16522200923
 21
221.26873702
 31
0.0
  0
ARC
  5
2C0
330
18
100
AcDbEntity
  8
LEVEL001
  6
DOT
 62
     1
370
    15
100
AcDbCircle
 10
189.36522200923
 20
221.87027520097
 30
0.0
 40
0.2
100
AcDbArc
 50
85.76406764668
 51
180.00000000001
  0
ARC
  5
2C1
330
18
100
AcDbEntity
  8
LEVEL001
  6
DOT
 62
     1
370
    15
100
AcDbCircle
 10
181.66522200923
 20
227.86819781014
 30
0.0
 40
0.2
100
AcDbArc
 50
0.0
 51
18.40224619588099
  0
POINT
  5
2C2
330
18
100
AcDbEntity
  8
LEVEL001
 62
     1
100
AcDbPoint
 10
212.41522200923
 20
233.64623668676
 30
0.0
  0
LINE
  5
2C3
330
18
100
AcDbEntity
  8
LEVEL001
  6
DOT
 62
     1
370
    15
100
AcDbLine
 10
196.91522200923
 20
233.64623668676
 30
0.0
 11
212.61522200923
 21
233.64623668676
 31
0.0
  0
POINT
  5
2C4
330
18
100
AcDbEntity
  8
LEVEL001
 62
     1
100
AcDbPoint
 10
181.41522200923
 20
233.64623668676
 30
0.0
  0
LINE
  5
2C5
330
18
100
AcDbEntity
  8
LEVEL001
  6
DOT
 62
     1
370
    15
100
AcDbLine
 10
196.91522200923
 20
233.64623668676
 30
0.0
 11
181.21522200923
 21
233.64623668676
 31
0.0
  0
LINE
  5
2C6
330
18
100
AcDbEntity
  8
LEVEL001
  6
DOT
 62
     1
370
    15
100
AcDbLine
 10
212.83884314174
 20
233.64623668676
 30
0.0
 11
212.61522200923
 21
233.64623668676
 31
0.0
  0
LINE
  5
2C7
330
18
100
AcDbEntity
  8
LEVEL001
  6
DOT
 62
     1
370
    15
100
AcDbLine
 10
212.83884314174
 20
233.64623668676
 30
0.0
 11
213.03884314174
 21
233.44623668676
 31
0.0
  0
POINT
  5
2C8
330
18
100
AcDbEntity
  8
LEVEL001
 62
     1
100
AcDbPoint
 10
213.03884314174
 20
233.64623668676
 30
0.0
  0
LINE
  5
2C9
330
18
100
AcDbEntity
  8
LEVEL001
  6
DOT
 62
     1
370
    15
100
AcDbLine
 10
213.09522200923
 20
230.64623668676
 30
0.0
 11
213.03884314174
 21
233.44623668676
 31
0.0
  0
LINE
  5
2CA
330
18
100
AcDbEntity
  8
LEVEL001
  6
DOT
 62
     1
370
    15
100
AcDbLine
 10
180.99160087672
 20
233.64623668676
 30
0.0
 11
181.21522200923
 21
233.64623668676
 31
0.0
  0
LINE
  5
2CB
330
18
100
AcDbEntity
  8
LEVEL001
  6
DOT
 62
     1
370
    15
100
AcDbLine
 10
180.99160087672
 20
233.64623668676
 30
0.0
 11
180.79160087672
 21
233.44623668676
 31
0.0
  0
POINT
  5
2CC
330
18
100
AcDbEntity
  8
LEVEL001
 62
     1
100
AcDbPoint
 10
180.79160087672
 20
233.64623668676
 30
0.0
  0
LINE
  5
2CD
330
18
100
AcDbEntity
  8
LEVEL001
  6
DOT
 62
     1
370
    15
100
AcDbLine
 10
180.73522200923
 20
230.64623668676
 30
0.0
 11
180.79160087672
 21
233.44623668676
 31
0.0
  0
LINE
  5
2CE
330
18
100
AcDbEntity
  8
LEVEL001
  6
Continuous
 62
     3
370
    20
100
AcDbLine
 10
180.91242385957
 20
168.34271682849
 30
0.0
 11
210.91242385957
 21
168.34271682849
 31
0.0
  0
TEXT
  5
2CF
330
18
100
AcDbEntity
  8
LEVEL001
 62
     3
370
    20
100
AcDbText
 10
189.66242385957
 20
163.34271682849
 30
0.0
 40
5.0
  1
Ｓ＝１：５
 41
0.5
 72
     5
 11
202.16242385957
 21
163.34271682849
 31
0.0
100
AcDbText
  0
TEXT
  5
2D0
330
18
100
AcDbEntity
  8
LEVEL001
 62
     3
370
    20
100
AcDbText
 10
183.41242385957
 20
169.34271682849
 30
0.0
 40
5.0
  1
先端部詳細
 72
     5
 11
208.41242385957
 21
169.34271682849
 31
0.0
100
AcDbText
  0
LINE
  5
2D1
330
18
100
AcDbEntity
  8
LEVEL001
  6
Continuous
 62
     1
370
    15
100
AcDbLine
 10
184.64292276699
 20
236.08515654813
 30
0.0
 11
176.57539330833
 21
241.47854603029
 31
0.0
  0
CIRCLE
  5
2D2
330
18
100
AcDbEntity
  8
LEVEL001
  6
Continuous
 62
     1
370
    15
100
AcDbCircle
 10
173.25005545094
 20
243.70163580226
 30
0.0
 40
4.0
  0
LINE
  5
2D3
330
18
100
AcDbEntity
  8
LEVEL001
  6
Continuous
 62
     1
370
    15
100
AcDbLine
 10
184.64292276699
 20
236.08515654813
 30
0.0
 11
182.59567570578
 21
238.4207400722
 31
0.0
  0
LINE
  5
2D4
330
18
100
AcDbEntity
  8
LEVEL001
  6
Continuous
 62
     1
370
    15
100
AcDbLine
 10
184.64292276699
 20
236.08515654813
 30
0.0
 11
181.70216304212
 21
237.08420768203
 31
0.0
  0
MTEXT
  5
2D5
330
18
100
AcDbEntity
  8
LEVEL001
 62
     3
370
    20
100
AcDbMText
 10
170.4216283262
 20
240.87320867752
 30
0.0
 40
5.6568542494924
 41
0.0
 71
     7
 72
     1
  1
\A1;３
 73
     1
 44
1.0
  0
LINE
  5
2D6
330
18
100
AcDbEntity
  8
LEVEL001
  6
Continuous
 62
     1
370
    15
100
AcDbLine
 10
187.41522200923
 20
219.04623668676
 30
0.0
 11
161.80714625184
 21
219.04623668676
 31
0.0
  0
LINE
  5
2D7
330
18
100
AcDbEntity
  8
LEVEL001
  6
Continuous
 62
     1
370
    15
100
AcDbLine
 10
194.91522200923
 20
248.44623668676
 30
0.0
 11
161.80714625184
 21
248.44623668676
 31
0.0
  0
LINE
  5
2D8
330
18
100
AcDbEntity
  8
LEVEL001
  6
Continuous
 62
     1
370
    15
100
AcDbLine
 10
163.80714625184
 20
219.04623668676
 30
0.0
 11
163.80714625184
 21
233.74623668676
 31
0.0
  0
LINE
  5
2D9
330
18
100
AcDbEntity
  8
LEVEL001
  6
Continuous
 62
     1
370
    15
100
AcDbLine
 10
163.80714625184
 20
248.44623668676
 30
0.0
 11
163.80714625184
 21
233.74623668676
 31
0.0
  0
LINE
  5
2DA
330
18
100
AcDbEntity
  8
LEVEL001
  6
Continuous
 62
     1
370
    15
100
AcDbLine
 10
163.80714625184
 20
219.04623668676
 30
0.0
 11
164.61099382913
 21
222.04623668676
 31
0.0
  0
LINE
  5
2DB
330
18
100
AcDbEntity
  8
LEVEL001
  6
Continuous
 62
     1
370
    15
100
AcDbLine
 10
163.80714625184
 20
219.04623668676
 30
0.0
 11
163.00329867454
 21
222.04623668676
 31
0.0
  0
LINE
  5
2DC
330
18
100
AcDbEntity
  8
LEVEL001
  6
Continuous
 62
     1
370
    15
100
AcDbLine
 10
163.80714625184
 20
248.44623668676
 30
0.0
 11
163.00329867454
 21
245.44623668676
 31
0.0
  0
LINE
  5
2DD
330
18
100
AcDbEntity
  8
LEVEL001
  6
Continuous
 62
     1
370
    15
100
AcDbLine
 10
163.80714625184
 20
248.44623668676
 30
0.0
 11
164.61099382913
 21
245.44623668676
 31
0.0
  0
MTEXT
  5
2DE
330
18
100
AcDbEntity
  8
LEVEL001
 62
     3
370
    20
100
AcDbMText
 10
162.09286053755
 20
233.74623668676
 30
0.0
 40
4.0
 41
0.0
 71
     8
 72
     1
  1
\A1;(147)
 11
0.0
 21
1.0
 31
0.0
 73
     1
 44
1.0
  0
LINE
  5
2DF
330
18
100
AcDbEntity
  8
LEVEL001
  6
Continuous
 62
     1
370
    15
100
AcDbLine
 10
180.41522200923
 20
232.64623668676
 30
0.0
 11
180.41522200923
 21
261.88466412389
 31
0.0
  0
LINE
  5
2E0
330
18
100
AcDbEntity
  8
LEVEL001
  6
Continuous
 62
     1
370
    15
100
AcDbLine
 10
213.41522200923
 20
232.64623668676
 30
0.0
 11
213.41522200923
 21
261.88466412389
 31
0.0
  0
LINE
  5
2E1
330
18
100
AcDbEntity
  8
LEVEL001
  6
Continuous
 62
     1
370
    15
100
AcDbLine
 10
180.41522200923
 20
259.88466412389
 30
0.0
 11
196.91522200923
 21
259.88466412389
 31
0.0
  0
LINE
  5
2E2
330
18
100
AcDbEntity
  8
LEVEL001
  6
Continuous
 62
     1
370
    15
100
AcDbLine
 10
213.41522200923
 20
259.88466412389
 30
0.0
 11
196.91522200923
 21
259.88466412389
 31
0.0
  0
LINE
  5
2E3
330
18
100
AcDbEntity
  8
LEVEL001
  6
Continuous
 62
     1
370
    15
100
AcDbLine
 10
180.41522200923
 20
259.88466412389
 30
0.0
 11
183.41522200923
 21
259.0808165466
 31
0.0
  0
LINE
  5
2E4
330
18
100
AcDbEntity
  8
LEVEL001
  6
Continuous
 62
     1
370
    15
100
AcDbLine
 10
180.41522200923
 20
259.88466412389
 30
0.0
 11
183.41522200923
 21
260.68851170118
 31
0.0
  0
LINE
  5
2E5
330
18
100
AcDbEntity
  8
LEVEL001
  6
Continuous
 62
     1
370
    15
100
AcDbLine
 10
213.41522200923
 20
259.88466412389
 30
0.0
 11
210.41522200923
 21
260.68851170118
 31
0.0
  0
LINE
  5
2E6
330
18
100
AcDbEntity
  8
LEVEL001
  6
Continuous
 62
     1
370
    15
100
AcDbLine
 10
213.41522200923
 20
259.88466412389
 30
0.0
 11
210.41522200923
 21
259.0808165466
 31
0.0
  0
MTEXT
  5
2E7
330
18
100
AcDbEntity
  8
LEVEL001
 62
     3
370
    20
100
AcDbMText
 10
196.91522200923
 20
261.59894983818
 30
0.0
 40
4.0
 41
0.0
 71
     8
 72
     1
  1
\A1;%%c165
 73
     1
 44
1.0
  0
POLYLINE
  5
2E8
330
18
100
AcDbEntity
  8
LEVEL001
  6
Continuous
 62
     1
370
    15
100
AcDb2dPolyline
 66
     1
 10
0.0
 20
0.0
 30
0.0
  0
VERTEX
  5
2E9
330
2E8
100
AcDbEntity
  8
LEVEL001
  6
Continuous
 62
     1
100
AcDbVertex
100
AcDb2dVertex
 10
180.91078888758
 20
112.28147126784
 30
0.0
  0
VERTEX
  5
2EA
330
2E8
100
AcDbEntity
  8
LEVEL001
  6
Continuous
 62
     1
100
AcDbVertex
100
AcDb2dVertex
 10
167.48720915313
 20
121.96549731597
 30
0.0
  0
VERTEX
  5
2EB
330
2E8
100
AcDbEntity
  8
LEVEL001
  6
Continuous
 62
     1
100
AcDbVertex
100
AcDb2dVertex
 10
139.48720915313
 20
121.96549731597
 30
0.0
  0
SEQEND
  5
2EC
330
2E8
100
AcDbEntity
  8
LEVEL001
  6
Continuous
 62
     1
  0
LINE
  5
2ED
330
18
100
AcDbEntity
  8
LEVEL001
  6
Continuous
 62
     1
370
    15
100
AcDbLine
 10
180.91078888758
 20
112.28147126784
 30
0.0
 11
178.94812502104
 21
114.68856941177
 31
0.0
  0
LINE
  5
2EE
330
18
100
AcDbEntity
  8
LEVEL001
  6
Continuous
 62
     1
370
    15
100
AcDbLine
 10
180.91078888758
 20
112.28147126784
 30
0.0
 11
178.0075230481
 21
113.38474747662
 31
0.0
  0
MTEXT
  5
2EF
102
{ACAD_REACTORS
330
2EE
102
}
330
18
100
AcDbEntity
  8
LEVEL001
 62
     3
370
    20
100
AcDbMText
 10
139.48720915313
 20
123.67978303026
 30
0.0
 40
4.0
 41
0.0
 71
     7
 72
     1
  1
\A1;２－Ｍ６ナベビス
 73
     1
 44
1.0
  0
LINE
  5
2F0
330
18
100
AcDbEntity
  8
LEVEL001
  6
Continuous
 62
     1
370
    15
100
AcDbLine
 10
173.21151698717
 20
106.48147126784
 30
0.0
 11
173.21151698717
 21
124.13686997508
 31
0.0
  0
LINE
  5
2F1
330
18
100
AcDbEntity
  8
LEVEL001
  6
Continuous
 62
     1
370
    15
100
AcDbLine
 10
173.21151698717
 20
122.13686997508
 30
0.0
 11
177.71151698717
 21
122.13686997508
 31
0.0
  0
LINE
  5
2F2
330
18
100
AcDbEntity
  8
LEVEL001
  6
Continuous
 62
     1
370
    15
100
AcDbLine
 10
182.21151698717
 20
122.13686997508
 30
0.0
 11
177.71151698717
 21
122.13686997508
 31
0.0
  0
LINE
  5
2F3
330
18
100
AcDbEntity
  8
LEVEL001
  6
Continuous
 62
     1
370
    15
100
AcDbLine
 10
173.21151698717
 20
122.13686997508
 30
0.0
 11
176.21151698717
 21
121.33302239779
 31
0.0
  0
LINE
  5
2F4
330
18
100
AcDbEntity
  8
LEVEL001
  6
Continuous
 62
     1
370
    15
100
AcDbLine
 10
173.21151698717
 20
122.13686997508
 30
0.0
 11
176.21151698717
 21
122.94071755237
 31
0.0
  0
LINE
  5
2F5
330
18
100
AcDbEntity
  8
LEVEL001
  6
Continuous
 62
     1
370
    15
100
AcDbLine
 10
182.21151698717
 20
122.13686997508
 30
0.0
 11
179.21151698717
 21
122.94071755237
 31
0.0
  0
LINE
  5
2F6
330
18
100
AcDbEntity
  8
LEVEL001
  6
Continuous
 62
     1
370
    15
100
AcDbLine
 10
182.21151698717
 20
122.13686997508
 30
0.0
 11
179.21151698717
 21
121.33302239779
 31
0.0
  0
MTEXT
  5
2F7
330
18
100
AcDbEntity
  8
LEVEL001
 62
     3
370
    20
100
AcDbMText
 10
177.71151698717
 20
123.85115568937
 30
0.0
 40
4.0
 41
0.0
 71
     8
 72
     1
  1
\A1;(45)
 73
     1
 44
1.0
  0
LINE
  5
2F8
330
18
100
AcDbEntity
  8
LEVEL001
  6
Continuous
 62
     3
370
    20
100
AcDbLine
 10
177.56151698717
 20
97.481471267841
 30
0.0
 11
178.86151698717
 21
97.481471267841
 31
0.0
  0
LINE
  5
2F9
330
18
100
AcDbEntity
  8
LEVEL001
  6
Continuous
 62
     3
370
    20
100
AcDbLine
 10
177.23445974434
 20
102.93242531498
 30
0.0
 11
177.56151698717
 21
97.481471267841
 31
0.0
  0
LINE
  5
2FA
330
18
100
AcDbEntity
  8
LEVEL001
  6
Continuous
 62
     3
370
    20
100
AcDbLine
 10
181.11151698717
 20
102.88147126784
 30
0.0
 11
181.11151698717
 21
96.481471267841
 31
0.0
  0
LINE
  5
2FB
330
18
100
AcDbEntity
  8
LEVEL001
  6
Continuous
 62
     3
370
    20
100
AcDbLine
 10
181.11151698717
 20
90.081471267841
 30
0.0
 11
181.11151698717
 21
96.481471267841
 31
0.0
  0
LINE
  5
2FC
330
18
100
AcDbEntity
  8
LEVEL001
  6
Continuous
 62
     3
370
    20
100
AcDbLine
 10
182.21151698717
 20
108.48147126784
 30
0.0
 11
181.11151698717
 21
102.88147126784
 31
0.0
  0
LINE
  5
2FD
330
18
100
AcDbEntity
  8
LEVEL001
  6
Continuous
 62
     3
370
    20
100
AcDbLine
 10
182.21151698717
 20
84.481471267841
 30
0.0
 11
181.11151698717
 21
90.081471267841
 31
0.0
  0
ARC
  5
2FE
330
18
100
AcDbEntity
  8
LEVEL001
  6
Continuous
 62
     3
370
    20
100
AcDbCircle
 10
180.24198527712
 20
106.9267700885
 30
0.0
 40
5.0
100
AcDbArc
 50
180.0
 51
233.02223081455
  0
LINE
  5
2FF
330
18
100
AcDbEntity
  8
LEVEL001
  6
HIDDEN
 62
     1
370
    15
100
AcDbLine
 10
181.71078888758
 20
80.051471267841
 30
0.0
 11
182.21151698717
 21
80.051471267841
 31
0.0
  0
LINE
  5
300
330
18
100
AcDbEntity
  8
LEVEL001
  6
HIDDEN
 62
     1
370
    15
100
AcDbLine
 10
181.71078888758
 20
80.051471267841
 30
0.0
 11
181.71078888758
 21
79.581471267841
 31
0.0
  0
LINE
  5
301
330
18
100
AcDbEntity
  8
LEVEL001
  6
HIDDEN
 62
     1
370
    15
100
AcDbLine
 10
181.71078888758
 20
81.781471267841
 30
0.0
 11
181.71078888758
 21
81.311471267841
 31
0.0
  0
LINE
  5
302
330
18
100
AcDbEntity
  8
LEVEL001
  6
HIDDEN
 62
     1
370
    15
100
AcDbLine
 10
181.71078888758
 20
81.311471267841
 30
0.0
 11
182.21151698717
 21
81.311471267841
 31
0.0
  0
LINE
  5
303
330
18
100
AcDbEntity
  8
LEVEL001
  6
Continuous
 62
     3
370
    20
100
AcDbLine
 10
175.21385611045
 20
110.46533809798
 30
0.0
 11
175.24198527712
 21
106.9267700885
 31
0.0
  0
LINE
  5
304
330
18
100
AcDbEntity
  8
LEVEL001
  6
DOT
 62
     1
370
    15
100
AcDbLine
 10
181.51078888758
 20
79.631471267841
 30
0.0
 11
181.71078888758
 21
79.631471267841
 31
0.0
  0
LINE
  5
305
330
18
100
AcDbEntity
  8
LEVEL001
  6
DOT
 62
     1
370
    15
100
AcDbLine
 10
181.71078888758
 20
81.731471267841
 30
0.0
 11
181.71078888758
 21
79.631471267841
 31
0.0
  0
LINE
  5
306
330
18
100
AcDbEntity
  8
LEVEL001
  6
DOT
 62
     1
370
    15
100
AcDbLine
 10
181.51078888758
 20
81.731471267841
 30
0.0
 11
181.71078888758
 21
81.731471267841
 31
0.0
  0
LINE
  5
307
330
18
100
AcDbEntity
  8
LEVEL001
  6
Continuous
 62
     3
370
    20
100
AcDbLine
 10
180.91078888758
 20
80.231471267841
 30
0.0
 11
180.91078888758
 21
81.131471267841
 31
0.0
  0
LINE
  5
308
330
18
100
AcDbEntity
  8
LEVEL001
  6
Continuous
 62
     3
370
    20
100
AcDbLine
 10
182.21151698717
 20
78.381471267841
 30
0.0
 11
182.21151698717
 21
84.481471267841
 31
0.0
  0
ARC
  5
309
330
18
100
AcDbEntity
  8
LEVEL001
  6
Continuous
 62
     3
370
    20
100
AcDbCircle
 10
187.12300283036
 20
83.9137083942
 30
0.0
 40
12.0
100
AcDbArc
 50
142.92793628941
 51
187.12650048794
  0
LINE
  5
30A
330
18
100
AcDbEntity
  8
LEVEL001
  6
HIDDEN
 62
     1
370
    15
100
AcDbLine
 10
181.71078888758
 20
112.91147126784
 30
0.0
 11
182.21151698717
 21
112.91147126784
 31
0.0
  0
LINE
  5
30B
330
18
100
AcDbEntity
  8
LEVEL001
  6
HIDDEN
 62
     1
370
    15
100
AcDbLine
 10
181.71078888758
 20
112.91147126784
 30
0.0
 11
181.71078888758
 21
113.38147126784
 31
0.0
  0
LINE
  5
30C
330
18
100
AcDbEntity
  8
LEVEL001
  6
HIDDEN
 62
     1
370
    15
100
AcDbLine
 10
181.71078888758
 20
111.18147126784
 30
0.0
 11
181.71078888758
 21
111.65147126784
 31
0.0
  0
LINE
  5
30D
330
18
100
AcDbEntity
  8
LEVEL001
  6
HIDDEN
 62
     1
370
    15
100
AcDbLine
 10
181.71078888758
 20
111.65147126784
 30
0.0
 11
182.21151698717
 21
111.65147126784
 31
0.0
  0
LINE
  5
30E
330
18
100
AcDbEntity
  8
LEVEL001
  6
DOT
 62
     1
370
    15
100
AcDbLine
 10
181.51078888758
 20
113.33147126784
 30
0.0
 11
181.71078888758
 21
113.33147126784
 31
0.0
  0
LINE
  5
30F
330
18
100
AcDbEntity
  8
LEVEL001
  6
DOT
 62
     1
370
    15
100
AcDbLine
 10
181.71078888758
 20
111.23147126784
 30
0.0
 11
181.71078888758
 21
113.33147126784
 31
0.0
  0
LINE
  5
310
330
18
100
AcDbEntity
  8
LEVEL001
  6
DOT
 62
     1
370
    15
100
AcDbLine
 10
181.51078888758
 20
111.23147126784
 30
0.0
 11
181.71078888758
 21
111.23147126784
 31
0.0
  0
LINE
  5
311
330
18
100
AcDbEntity
  8
LEVEL001
  6
Continuous
 62
     3
370
    20
100
AcDbLine
 10
180.91078888758
 20
112.73147126784
 30
0.0
 11
180.91078888758
 21
111.83147126784
 31
0.0
  0
LINE
  5
312
330
18
100
AcDbEntity
  8
LEVEL001
  6
Continuous
 62
     3
370
    20
100
AcDbLine
 10
182.21151698717
 20
114.58147126784
 30
0.0
 11
182.21151698717
 21
108.48147126784
 31
0.0
  0
LWPOLYLINE
  5
313
330
18
100
AcDbEntity
  8
LEVEL001
  6
Continuous
 62
     3
370
    20
100
AcDbPolyline
 90
       65
 70
     0
 43
0.0
 10
174.36360001271
 20
109.51179735837
 10
174.34349350173
 20
109.05636601867
 10
174.32345556791
 20
108.60131199565
 10
174.30355478843
 20
108.14701260599
 10
174.28385974046
 20
107.69384516639
 10
174.26443900116
 20
107.24218699352
 10
174.24536114771
 20
106.79241540406
 10
174.22669475726
 20
106.34490771471
 10
174.208508407
 20
105.90004124214
 10
174.19087067409
 20
105.45819330304
 10
174.1738501357
 20
105.01974121408
 10
174.157515369
 20
104.58506229197
 10
174.14193495116
 20
104.15453385337
 10
174.12717745934
 20
103.72853321498
 10
174.11331147073
 20
103.30743769347
 10
174.10040556247
 20
102.89162460553
 10
174.08852831176
 20
102.48147126784
 10
174.07772873411
 20
102.07722922486
 10
174.06797759851
 20
101.67864693214
 10
174.0592261123
 20
101.28534707299
 10
174.05142548282
 20
100.89695233072
 10
174.04452691743
 20
100.51308538866
 10
174.03848162345
 20
100.13336893011
 10
174.03324080823
 20
99.757425638402
 10
174.02875567913
 20
99.384878196845
 10
174.02497744346
 20
99.015349288757
 10
174.0218573086
 20
98.648461597454
 10
174.01934648186
 20
98.283837806253
 10
174.0173961706
 20
97.921100598469
 10
174.01595758216
 20
97.55987265742
 10
174.01498192389
 20
97.199776666421
 10
174.01442040312
 20
96.840435308789
 10
174.0142242272
 20
96.481471267841
 10
174.0143608571
 20
96.122507226892
 10
174.01486276833
 20
95.76316586926
 10
174.01577869001
 20
95.403069878261
 10
174.01715735129
 20
95.04184193721
 10
174.01904748129
 20
94.679104729425
 10
174.02149780916
 20
94.314480938222
 10
174.02455706402
 20
93.947593246918
 10
174.02827397502
 20
93.578064338829
 10
174.03269727128
 20
93.205516897272
 10
174.03787568193
 20
92.829573605562
 10
174.04385793612
 20
92.449857147018
 10
174.05069276298
 20
92.065990204954
 10
174.05842889163
 20
91.677595462688
 10
174.06711505123
 20
91.284295603536
 10
174.07679997089
 20
90.885713310815
 10
174.08753237975
 20
90.481471267841
 10
174.09934146649
 20
90.071317930158
 10
174.11217825793
 20
89.655504842223
 10
174.1259742404
 20
89.234409320718
 10
174.14066090028
 20
88.808408682328
 10
174.15616972391
 20
88.377880243735
 10
174.17243219765
 20
87.943201321624
 10
174.18937980786
 20
87.504749232677
 10
174.20694404087
 20
87.062901293579
 10
174.22505638306
 20
86.618034821013
 10
174.24364832077
 20
86.170527131662
 10
174.26265134035
 20
85.72075554221
 10
174.28199692817
 20
85.269097369341
 10
174.30161657057
 20
84.815929929737
 10
174.32144175391
 20
84.361630540083
 10
174.34140396454
 20
83.906576517062
 10
174.36143468882
 20
83.451145177357
  0
LWPOLYLINE
  5
314
330
18
100
AcDbEntity
  8
LEVEL001
  6
Continuous
 62
     3
370
    20
100
AcDbPolyline
 90
       65
 70
     0
 43
0.0
 10
175.16089277268
 20
109.51179735837
 10
175.14082424065
 20
109.05563653939
 10
175.12082339218
 20
108.59987020132
 10
175.10095791079
 20
108.14489282504
 10
175.08129548004
 20
107.69109889147
 10
175.06190378347
 20
107.23888288151
 10
175.04285050464
 20
106.78863927605
 10
175.02420332708
 20
106.340762556
 10
175.00602993434
 20
105.89564720227
 10
174.98839800998
 20
105.45368769575
 10
174.97137523753
 20
105.01527851734
 10
174.95502930055
 20
104.58081414795
 10
174.93942788258
 20
104.15068906849
 10
174.92463866716
 20
103.72529775984
 10
174.91072933785
 20
103.30503470291
 10
174.89776757819
 20
102.89029437861
 10
174.88582107173
 20
102.48147126784
 10
174.87493883399
 20
102.07881691505
 10
174.86509520846
 20
101.68201111891
 10
174.85624587058
 20
101.29059074166
 10
174.84834649582
 20
100.90409264551
 10
174.84135275962
 20
100.52205369268
 10
174.83522033745
 20
100.14401074542
 10
174.82990490475
 20
99.769500665932
 10
174.82536213699
 20
99.398060316452
 10
174.82154770961
 20
99.029226559203
 10
174.81841729809
 20
98.662536256409
 10
174.81592657786
 20
98.297526270297
 10
174.81403122439
 20
97.933733463092
 10
174.81268691313
 20
97.570694697018
 10
174.81184931953
 20
97.207946834302
 10
174.81147411906
 20
96.845026737168
 10
174.81151698717
 20
96.481471267841
 10
174.81194627845
 20
96.11688594542
 10
174.81278106407
 20
95.751150916494
 10
174.81405309434
 20
95.384214984526
 10
174.81579411955
 20
95.01602695298
 10
174.81803589003
 20
94.646535625319
 10
174.82081015607
 20
94.275689805005
 10
174.82414866797
 20
93.903438295501
 10
174.82808317605
 20
93.529729900271
 10
174.83264543061
 20
93.154513422778
 10
174.83786718196
 20
92.777737666484
 10
174.84378018041
 20
92.399351434853
 10
174.85041617625
 20
92.019303531347
 10
174.85780691979
 20
91.63754275943
 10
174.86598416135
 20
91.254017922565
 10
174.87497965123
 20
90.868677824214
 10
174.88482513972
 20
90.481471267841
 10
174.89553790055
 20
90.092375565233
 10
174.90707730099
 20
89.701482061476
 10
174.91938823175
 20
89.308910609979
 10
174.93241558352
 20
88.914781064154
 10
174.94610424698
 20
88.519213277409
 10
174.96039911283
 20
88.122327103154
 10
174.97524507176
 20
87.7242423948
 10
174.99058701446
 20
87.325079005756
 10
175.00636983163
 20
86.924956789433
 10
175.02253841396
 20
86.52399559924
 10
175.03903765213
 20
86.122315288588
 10
175.05581243685
 20
85.720035710886
 10
175.07280765879
 20
85.317276719544
 10
175.08996820866
 20
84.914158167972
 10
175.10723897715
 20
84.51079990958
 10
175.12456485495
 20
84.107321797778
  0
POINT
  5
315
330
18
100
AcDbEntity
  8
LEVEL001
 62
     2
100
AcDbPoint
 10
182.21151698717
 20
96.481471267841
 30
0.0
  0
ARC
  5
316
330
18
100
AcDbEntity
  8
LEVEL001
  6
Continuous
 62
     3
370
    20
100
AcDbCircle
 10
174.81656335045
 20
82.451145177324
 30
0.0
 40
0.4
100
AcDbArc
 50
189.81802439687
 51
356.24988759821
  0
ARC
  5
317
330
18
100
AcDbEntity
  8
LEVEL001
  6
Continuous
 62
     3
370
    20
100
AcDbCircle
 10
174.81656335048
 20
110.51179735837
 30
0.0
 40
0.4
100
AcDbArc
 50
353.33014694046
 51
170.18197560317
  0
LWPOLYLINE
  5
318
330
18
100
AcDbEntity
  8
LEVEL001
  6
Continuous
 62
     3
370
    20
100
AcDbPolyline
 90
      161
 70
     0
 43
0.0
 10
174.42242162873
 20
110.58000515251
 10
174.40359341384
 20
110.46388413723
 10
174.38472834927
 20
110.34740930188
 10
174.36578958534
 20
110.23022682642
 10
174.34674027237
 20
110.11198289078
 10
174.32754356069
 20
109.9923236749
 10
174.30816260061
 20
109.87089535873
 10
174.28856054247
 20
109.7473441222
 10
174.26870053658
 20
109.62131614526
 10
174.24854573326
 20
109.49245760785
 10
174.22805928285
 20
109.36041468991
 10
174.20720433566
 20
109.22483357138
 10
174.18594404202
 20
109.08536043221
 10
174.16424155224
 20
108.94164145233
 10
174.14206001665
 20
108.79332281168
 10
174.11936258558
 20
108.64005069021
 10
174.09611240935
 20
108.48147126786
 10
174.07229313406
 20
108.31736446013
 10
174.04797038894
 20
108.14804512475
 10
174.02323029903
 20
107.97396185501
 10
173.99815898933
 20
107.7955632442
 10
173.97284258485
 20
107.6132978856
 10
173.94736721063
 20
107.4276143725
 10
173.92181899167
 20
107.2389612982
 10
173.89628405299
 20
107.04778725598
 10
173.8708485196
 20
106.85454083914
 10
173.84559851653
 20
106.65967064095
 10
173.8206201688
 20
106.46362525471
 10
173.79599960141
 20
106.26685327371
 10
173.77182293938
 20
106.06980329123
 10
173.74817630774
 20
105.87292390057
 10
173.7251458315
 20
105.67666369501
 10
173.70281763568
 20
105.48147126784
 10
173.68125840879
 20
105.28770043912
 10
173.66045709342
 20
105.095325936
 10
173.64038319563
 20
104.90422771236
 10
173.62100622151
 20
104.71428572214
 10
173.60229567713
 20
104.52537991923
 10
173.58422106857
 20
104.33739025754
 10
173.56675190191
 20
104.15019669098
 10
173.54985768322
 20
103.96367917347
 10
173.53350791859
 20
103.7777176589
 10
173.5176721141
 20
103.59219210119
 10
173.50231977581
 20
103.40698245425
 10
173.48742040982
 20
103.22196867198
 10
173.47294352218
 20
103.0370307083
 10
173.458858619
 20
102.85204851711
 10
173.44513520633
 20
102.66690205232
 10
173.43174279027
 20
102.48147126784
 10
173.41865780195
 20
102.29566139044
 10
173.40588437276
 20
102.10947873834
 10
173.39343355914
 20
101.92295490261
 10
173.38131641756
 20
101.73612147432
 10
173.36954400445
 20
101.54901004456
 10
173.35812737628
 20
101.36165220441
 10
173.34707758948
 20
101.17407954493
 10
173.33640570052
 20
100.98632365721
 10
173.32612276584
 20
100.79841613232
 10
173.31623984188
 20
100.61038856134
 10
173.30676798511
 20
100.42227253535
 10
173.29771825197
 20
100.23409964542
 10
173.28910169891
 20
100.04590148262
 10
173.28092938238
 20
99.857709638044
 10
173.27321235883
 20
99.669555702758
 10
173.26596168471
 20
99.481471267841
 10
173.25918576035
 20
99.293481606153
 10
173.25288236156
 20
99.105586717696
 10
173.24704660801
 20
98.917780284253
 10
173.24167361941
 20
98.730055987609
 10
173.23675851543
 20
98.542407509549
 10
173.23229641576
 20
98.354828531857
 10
173.22828244009
 20
98.167312736319
 10
173.22471170811
 20
97.979853804718
 10
173.22157933949
 20
97.792445418841
 10
173.21888045393
 20
97.60508126047
 10
173.21661017111
 20
97.417755011391
 10
173.21476361072
 20
97.230460353389
 10
173.21333589245
 20
97.043190968248
 10
173.21232213597
 20
96.855940537754
 10
173.21171746098
 20
96.668702743689
 10
173.21151698717
 20
96.481471267841
 10
173.21171746098
 20
96.294239791992
 10
173.21232213597
 20
96.107001997928
 10
173.21333589244
 20
95.919751567433
 10
173.21476361072
 20
95.732482182292
 10
173.2166101711
 20
95.545187524291
 10
173.21888045392
 20
95.357861275212
 10
173.22157933948
 20
95.170497116842
 10
173.22471170809
 20
94.983088730964
 10
173.22828244008
 20
94.795629799364
 10
173.23229641575
 20
94.608114003826
 10
173.23675851542
 20
94.420535026135
 10
173.2416736194
 20
94.232886548074
 10
173.247046608
 20
94.04516225143
 10
173.25288236155
 20
93.857355817987
 10
173.25918576034
 20
93.669460929529
 10
173.26596168471
 20
93.481471267841
 10
173.27321235883
 20
93.293386832923
 10
173.28092938238
 20
93.105232897636
 10
173.28910169891
 20
92.917041053057
 10
173.29771825197
 20
92.728842890263
 10
173.30676798512
 20
92.54067000033
 10
173.31623984189
 20
92.352553974335
 10
173.32612276584
 20
92.164526403354
 10
173.33640570052
 20
91.976618878465
 10
173.34707758949
 20
91.788862990744
 10
173.35812737628
 20
91.601290331268
 10
173.36954400445
 20
91.413932491112
 10
173.38131641755
 20
91.226821061355
 10
173.39343355913
 20
91.039987633073
 10
173.40588437274
 20
90.853463797342
 10
173.41865780193
 20
90.667281145239
 10
173.43174279025
 20
90.481471267841
 10
173.44513520631
 20
90.296040483363
 10
173.45885861896
 20
90.110894018575
 10
173.47294352215
 20
89.925911827385
 10
173.48742040977
 20
89.740973863703
 10
173.50231977577
 20
89.555960081437
 10
173.51767211405
 20
89.370750434496
 10
173.53350791854
 20
89.185224876788
 10
173.54985768317
 20
88.999263362222
 10
173.56675190185
 20
88.812745844707
 10
173.58422106852
 20
88.62555227815
 10
173.60229567708
 20
88.437562616462
 10
173.62100622146
 20
88.24865681355
 10
173.64038319559
 20
88.058714823323
 10
173.66045709338
 20
87.867616599691
 10
173.68125840877
 20
87.67524209656
 10
173.70281763566
 20
87.481471267841
 10
173.7251458315
 20
87.286278840671
 10
173.74817630775
 20
87.09001863511
 10
173.7718229394
 20
86.893139244446
 10
173.79599960143
 20
86.696089261968
 10
173.82062016883
 20
86.499317280965
 10
173.84559851657
 20
86.303271894725
 10
173.87084851965
 20
86.108401696538
 10
173.89628405304
 20
85.915155279691
 10
173.92181899172
 20
85.723981237474
 10
173.94736721068
 20
85.535328163175
 10
173.97284258491
 20
85.349644650084
 10
173.99815898938
 20
85.167379291489
 10
174.02323029907
 20
84.988980680678
 10
174.04797038898
 20
84.81489741094
 10
174.07229313408
 20
84.645578075565
 10
174.09611240936
 20
84.481471267841
 10
174.11936258558
 20
84.322891845498
 10
174.14206001663
 20
84.169619724037
 10
174.1642415522
 20
84.021301083397
 10
174.18594404196
 20
83.877582103521
 10
174.2072043356
 20
83.73810896435
 10
174.22805928278
 20
83.602527845825
 10
174.24854573318
 20
83.470484927887
 10
174.26870053648
 20
83.341626390477
 10
174.28856054237
 20
83.215598413538
 10
174.30816260051
 20
83.092047177009
 10
174.32754356059
 20
82.970618860833
 10
174.34674027228
 20
82.850959644951
 10
174.36578958526
 20
82.732715709303
 10
174.3847283492
 20
82.615533233832
 10
174.4035934138
 20
82.499058398478
 10
174.42242162871
 20
82.382937383183
  0
ARC
  5
319
330
18
100
AcDbEntity
  8
LEVEL001
  6
Continuous
 62
     3
370
    20
100
AcDbCircle
 10
178.18676983184
 20
90.665281529111
 30
0.0
 40
0.8
100
AcDbArc
 50
21.936801848504
 51
142.9279362894
  0
LINE
  5
31A
330
18
100
AcDbEntity
  8
LEVEL001
  6
Continuous
 62
     3
370
    20
100
AcDbLine
 10
179.16941466217
 20
102.6130991846
 30
0.0
 11
178.86151698717
 21
97.481471267841
 31
0.0
  0
LINE
  5
31B
330
18
100
AcDbEntity
  8
LEVEL001
  6
HIDDEN
 62
     1
370
    15
100
AcDbLine
 10
181.38241362727
 20
113.38147126784
 30
0.0
 11
181.71078888758
 21
113.38147126784
 31
0.0
  0
ARC
  5
31C
330
18
100
AcDbEntity
  8
LEVEL001
  6
DOT
 62
     1
370
    15
100
AcDbCircle
 10
181.51078888757
 20
112.73147126784
 30
0.0
 40
0.6
100
AcDbArc
 50
89.99999999959999
 51
102.62388350062
  0
ARC
  5
31D
330
18
100
AcDbEntity
  8
LEVEL001
  6
DOT
 62
     1
370
    15
100
AcDbCircle
 10
181.51078888759
 20
111.83147126784
 30
0.0
 40
0.6
100
AcDbArc
 50
242.30847316514
 51
269.99999999869
  0
LINE
  5
31E
330
18
100
AcDbEntity
  8
LEVEL001
  6
HIDDEN
 62
     1
370
    15
100
AcDbLine
 10
181.21953126685
 20
111.18147126784
 30
0.0
 11
181.71078888758
 21
111.18147126784
 31
0.0
  0
ARC
  5
31F
330
18
100
AcDbEntity
  8
LEVEL001
  6
Continuous
 62
     3
370
    20
100
AcDbCircle
 10
181.51078888758
 20
111.83147126785
 30
0.0
 40
0.6
100
AcDbArc
 50
180.00000000059
 51
242.30847316659
  0
ARC
  5
320
330
18
100
AcDbEntity
  8
LEVEL001
  6
Continuous
 62
     3
370
    20
100
AcDbCircle
 10
181.51078888758
 20
112.73147126784
 30
0.0
 40
0.6
100
AcDbArc
 50
102.62388350103
 51
180.00000000009
  0
LINE
  5
321
330
18
100
AcDbEntity
  8
LEVEL001
  6
HIDDEN
 62
     1
370
    15
100
AcDbLine
 10
181.21953126685
 20
81.781471267841
 30
0.0
 11
181.71078888758
 21
81.781471267841
 31
0.0
  0
ARC
  5
322
330
18
100
AcDbEntity
  8
LEVEL001
  6
DOT
 62
     1
370
    15
100
AcDbCircle
 10
181.51078888759
 20
81.131471267841
 30
0.0
 40
0.6
100
AcDbArc
 50
90.000000001303
 51
117.69152683485
  0
ARC
  5
323
330
18
100
AcDbEntity
  8
LEVEL001
  6
DOT
 62
     1
370
    15
100
AcDbCircle
 10
181.51078888757
 20
80.231471267841
 30
0.0
 40
0.6
100
AcDbArc
 50
257.37611649929
 51
270.00000000035
  0
LINE
  5
324
330
18
100
AcDbEntity
  8
LEVEL001
  6
HIDDEN
 62
     1
370
    15
100
AcDbLine
 10
181.38241362727
 20
79.581471267841
 30
0.0
 11
181.71078888758
 21
79.581471267841
 31
0.0
  0
ARC
  5
325
330
18
100
AcDbEntity
  8
LEVEL001
  6
Continuous
 62
     3
370
    20
100
AcDbCircle
 10
181.51078888758
 20
80.231471267841
 30
0.0
 40
0.6
100
AcDbArc
 50
179.99999999993
 51
257.37611649897
  0
ARC
  5
326
330
18
100
AcDbEntity
  8
LEVEL001
  6
Continuous
 62
     3
370
    20
100
AcDbCircle
 10
181.51078888758
 20
81.131471267835
 30
0.0
 40
0.6
100
AcDbArc
 50
117.69152683341
 51
179.99999999941
  0
ARC
  5
327
330
18
100
AcDbEntity
  8
LEVEL001
  6
Continuous
 62
     3
370
    20
100
AcDbCircle
 10
147.11228750201
 20
114.81271386037
 30
0.0
 40
34.3
100
AcDbArc
 50
339.16524836755
 51
359.6181751394
  0
ARC
  5
328
330
18
100
AcDbEntity
  8
LEVEL001
  6
Continuous
 62
     3
370
    20
100
AcDbCircle
 10
147.11228750201
 20
78.150228675313
 30
0.0
 40
34.3
100
AcDbArc
 50
0.38182486060207
 51
21.936801848487
  0
ARC
  5
329
330
18
100
AcDbEntity
  8
LEVEL001
  6
Continuous
 62
     3
370
    20
100
AcDbCircle
 10
181.81151698717
 20
78.381471267843
 30
0.0
 40
0.4
100
AcDbArc
 50
269.99999999997
 51
0.0
  0
ARC
  5
32A
330
18
100
AcDbEntity
  8
LEVEL001
  6
Continuous
 62
     3
370
    20
100
AcDbCircle
 10
181.81151698717
 20
78.381471267843
 30
0.0
 40
0.4
100
AcDbArc
 50
180.38182486092
 51
270.0
  0
ARC
  5
32B
330
18
100
AcDbEntity
  8
LEVEL001
  6
Continuous
 62
     3
370
    20
100
AcDbCircle
 10
181.81151698717
 20
114.58147126784
 30
0.0
 40
0.4
100
AcDbArc
 50
0.0000000003126612
 51
90.000000000033
  0
ARC
  5
32C
330
18
100
AcDbEntity
  8
LEVEL001
  6
Continuous
 62
     3
370
    20
100
AcDbCircle
 10
181.81151698717
 20
114.58147126784
 30
0.0
 40
0.4
100
AcDbArc
 50
90.000000000003
 51
179.61817513909
  0
LWPOLYLINE
  5
32D
330
18
100
AcDbEntity
  8
LEVEL001
  6
DOT
 62
     1
370
    15
100
AcDbPolyline
 90
        4
 70
     0
 43
0.0
 10
181.71078888758
 20
80.081471267855
 10
184.91078888758
 20
80.081471267855
 10
184.91078888758
 20
81.281471267855
 10
181.71078888755
 20
81.281471267855
  0
LINE
  5
32E
330
18
100
AcDbEntity
  8
LEVEL001
  6
DASHDOT
 62
     1
370
    15
100
AcDbLine
 10
180.39475068957
 20
80.681471267841
 30
0.0
 11
185.43956313251
 21
80.681471267841
 31
0.0
  0
LWPOLYLINE
  5
32F
330
18
100
AcDbEntity
  8
LEVEL001
  6
DOT
 62
     1
370
    15
100
AcDbPolyline
 90
        4
 70
     0
 43
0.0
 10
181.71078888758
 20
112.88147126783
 10
184.91078888758
 20
112.88147126783
 10
184.91078888758
 20
111.68147126783
 10
181.71078888755
 20
111.68147126783
  0
LINE
  5
330
330
18
100
AcDbEntity
  8
LEVEL001
  6
DASHDOT
 62
     1
370
    15
100
AcDbLine
 10
180.39475068957
 20
112.28147126784
 30
0.0
 11
185.43956313251
 21
112.28147126784
 31
0.0
  0
LINE
  5
331
330
18
100
AcDbEntity
  8
LEVEL001
  6
Continuous
 62
     1
370
    15
100
AcDbLine
 10
179.81151698717
 20
114.98147126784
 30
0.0
 11
158.28031939358
 21
114.98147126784
 31
0.0
  0
LINE
  5
332
330
18
100
AcDbEntity
  8
LEVEL001
  6
Continuous
 62
     1
370
    15
100
AcDbLine
 10
179.81151698717
 20
77.981471267843
 30
0.0
 11
158.28031939358
 21
77.981471267843
 31
0.0
  0
LINE
  5
333
330
18
100
AcDbEntity
  8
LEVEL001
  6
Continuous
 62
     1
370
    15
100
AcDbLine
 10
160.28031939358
 20
114.98147126784
 30
0.0
 11
160.28031939358
 21
96.481471267841
 31
0.0
  0
LINE
  5
334
330
18
100
AcDbEntity
  8
LEVEL001
  6
Continuous
 62
     1
370
    15
100
AcDbLine
 10
160.28031939358
 20
77.981471267843
 30
0.0
 11
160.28031939358
 21
96.481471267841
 31
0.0
  0
LINE
  5
335
330
18
100
AcDbEntity
  8
LEVEL001
  6
Continuous
 62
     1
370
    15
100
AcDbLine
 10
160.28031939358
 20
114.98147126784
 30
0.0
 11
159.47647181629
 21
111.98147126784
 31
0.0
  0
LINE
  5
336
330
18
100
AcDbEntity
  8
LEVEL001
  6
Continuous
 62
     1
370
    15
100
AcDbLine
 10
160.28031939358
 20
114.98147126784
 30
0.0
 11
161.08416697088
 21
111.98147126784
 31
0.0
  0
LINE
  5
337
330
18
100
AcDbEntity
  8
LEVEL001
  6
Continuous
 62
     1
370
    15
100
AcDbLine
 10
160.28031939358
 20
77.981471267843
 30
0.0
 11
161.08416697088
 21
80.981471267843
 31
0.0
  0
LINE
  5
338
330
18
100
AcDbEntity
  8
LEVEL001
  6
Continuous
 62
     1
370
    15
100
AcDbLine
 10
160.28031939358
 20
77.981471267843
 30
0.0
 11
159.47647181629
 21
80.981471267843
 31
0.0
  0
MTEXT
  5
339
330
18
100
AcDbEntity
  8
LEVEL001
 62
     3
370
    20
100
AcDbMText
 10
158.5660336793
 20
96.481471267841
 30
0.0
 40
4.0
 41
0.0
 71
     8
 72
     1
  1
\A1;(185)
 11
0.0
 21
1.0
 31
0.0
 73
     1
 44
1.0
  0
POLYLINE
  5
33A
330
18
100
AcDbEntity
  8
LEVEL001
  6
Continuous
 62
     1
370
    15
100
AcDb2dPolyline
 66
     1
 10
0.0
 20
0.0
 30
0.0
  0
VERTEX
  5
33B
330
33A
100
AcDbEntity
  8
LEVEL001
  6
Continuous
 62
     1
100
AcDbVertex
100
AcDb2dVertex
 10
182.16522200923
 20
209.4
 30
0.0
  0
VERTEX
  5
33C
330
33A
100
AcDbEntity
  8
LEVEL001
  6
Continuous
 62
     1
100
AcDbVertex
100
AcDb2dVertex
 10
175.32349582835
 20
198.48955242935
 30
0.0
  0
VERTEX
  5
33D
330
33A
100
AcDbEntity
  8
LEVEL001
  6
Continuous
 62
     1
100
AcDbVertex
100
AcDb2dVertex
 10
157.35300224395
 20
198.48955242935
 30
0.0
  0
SEQEND
  5
33E
330
33A
100
AcDbEntity
  8
LEVEL001
  6
Continuous
 62
     1
  0
LINE
  5
33F
330
18
100
AcDbEntity
  8
LEVEL001
  6
Continuous
 62
     1
370
    15
100
AcDbLine
 10
182.16522200923
 20
209.4
 30
0.0
 11
179.89040103555
 21
207.2854408343
 31
0.0
  0
LINE
  5
340
330
18
100
AcDbEntity
  8
LEVEL001
  6
Continuous
 62
     1
370
    15
100
AcDbLine
 10
182.16522200923
 20
209.4
 30
0.0
 11
181.25244883981
 21
206.43132755786
 31
0.0
  0
MTEXT
  5
341
102
{ACAD_REACTORS
330
340
102
}
330
18
100
AcDbEntity
  8
LEVEL001
 62
     3
370
    20
100
AcDbMText
 10
157.35300224395
 20
199.46751153301
 30
0.0
 40
4.0
 41
0.0
 71
     4
 72
     1
  1
\A1;%%c８ロープ\P　２５ｍ
 73
     1
 44
1.0
  0
TEXT
  5
342
330
18
100
AcDbEntity
  8
LEVEL001
 62
     3
370
    20
100
AcDbText
 10
36.062644007359
 20
26.046808984544
 30
0.0
 40
5.0
  1
ポール姿図
 72
     5
 11
61.062644007359
 21
26.046808984544
 31
0.0
100
AcDbText
  0
TEXT
  5
343
330
18
100
AcDbEntity
  8
LEVEL001
 62
     3
370
    20
100
AcDbText
 10
41.268339241843
 20
19.817403735406
 30
0.0
 40
5.0
  1
Ｓ＝１：７０
 41
0.5
 72
     5
 11
56.268339241843
 21
19.817403735406
 31
0.0
100
AcDbText
  0
LWPOLYLINE
  5
344
330
18
100
AcDbEntity
  8
LEVEL001
  6
DOT
 62
     1
370
    15
100
AcDbPolyline
 90
        4
 70
     0
 43
0.0
 10
94.928543385267
 20
196.47809797047
 10
94.928543385267
 20
198.62095511333
 10
93.728543385267
 20
198.62095511333
 10
93.728543385267
 20
196.47809797047
  0
LWPOLYLINE
  5
345
330
18
100
AcDbEntity
  8
LEVEL001
  6
DOT
 62
     1
370
    15
100
AcDbPolyline
 90
        4
 70
     0
 43
0.0
 10
93.514257670981
 20
139.33524082761
 10
93.514257670981
 20
142.19238368476
 10
95.142829099552
 20
142.19238368476
 10
95.142829099552
 20
139.33524082761
  0
TEXT
  5
346
330
18
100
AcDbEntity
  8
LEVEL001
 62
     3
370
    20
100
AcDbText
 10
347.0
 20
282.5
 30
0.0
 40
3.0
  1
製品仕様
 72
     5
 11
359.0
 21
282.5
 31
0.0
100
AcDbText
  0
TEXT
  5
347
330
18
100
AcDbEntity
  8
LEVEL001
 62
     3
370
    20
100
AcDbText
 10
347.0
 20
278.5
 30
0.0
 40
3.0
  1
・主要材料はアルミニウム合金製とします。
 72
     5
 11
407.0
 21
278.5
 31
0.0
100
AcDbText
  0
TEXT
  5
348
330
18
100
AcDbEntity
  8
LEVEL001
 62
     3
370
    20
100
AcDbText
 10
347.0
 20
274.5
 30
0.0
 40
3.0
  1
・表面処理はヘアライン研磨後
 72
     5
 11
389.0
 21
274.5
 31
0.0
100
AcDbText
  0
TEXT
  5
349
330
18
100
AcDbEntity
  8
LEVEL001
 62
     3
370
    20
100
AcDbText
 10
347.0
 20
270.5
 30
0.0
 40
3.0
  1
　アクリル樹脂クリア塗装を施します。
 72
     5
 11
401.0
 21
270.5
 31
0.0
100
AcDbText
  0
TEXT
  5
34A
330
18
100
AcDbEntity
  8
LEVEL001
 62
     3
370
    20
100
AcDbText
 10
347.0
 20
266.5
 30
0.0
 40
3.0
  1
・材質指示のないボルト類はＳＵＳ３０４
 72
     5
 11
404.0
 21
266.5
 31
0.0
100
AcDbText
  0
TEXT
  5
34B
330
18
100
AcDbEntity
  8
LEVEL001
 62
     3
370
    20
100
AcDbText
 10
347.0
 20
262.5
 30
0.0
 40
3.0
  1
　とします。
 72
     5
 11
365.0
 21
262.5
 31
0.0
100
AcDbText
  0
TEXT
  5
34C
330
18
100
AcDbEntity
  8
LEVEL001
 62
     3
370
    20
100
AcDbText
 10
347.0
 20
258.5
 30
0.0
 40
3.0
  1
設計条件
 72
     5
 11
359.0
 21
258.5
 31
0.0
100
AcDbText
  0
TEXT
  5
34D
330
18
100
AcDbEntity
  8
LEVEL001
 62
     3
370
    20
100
AcDbText
 10
347.0
 20
254.5
 30
0.0
 40
3.0
  1
・基準風速と地表面粗度の許容範囲の目安は
 72
     5
 11
407.0
 21
254.5
 31
0.0
100
AcDbText
  0
TEXT
  5
34E
330
18
100
AcDbEntity
  8
LEVEL001
 62
     3
370
    20
100
AcDbText
 10
347.0
 20
250.5
 30
0.0
 40
3.0
  1
　下表を参照願います。（旗無し時）
 72
     5
 11
398.0
 21
250.5
 31
0.0
100
AcDbText
  0
TEXT
  5
34F
330
18
100
AcDbEntity
  8
LEVEL001
 62
     3
370
    20
100
AcDbText
 10
347.0
 20
246.5
 30
0.0
 40
3.0
  1
・基礎寸法は地盤の許容応力度が１０ｔ／㎡
 72
     5
 11
407.0
 21
246.5
 31
0.0
100
AcDbText
  0
TEXT
  5
350
330
18
100
AcDbEntity
  8
LEVEL001
 62
     3
370
    20
100
AcDbText
 10
347.0
 20
242.5
 30
0.0
 40
3.0
  1
　（短期）時の参考寸法です。
 72
     5
 11
389.0
 21
242.5
 31
0.0
100
AcDbText
  0
TEXT
  5
351
330
18
100
AcDbEntity
  8
LEVEL001
 62
     3
370
    20
100
AcDbText
 10
347.0
 20
238.5
 30
0.0
 40
3.0
  1
・地上～１５ｍ迄
 72
     5
 11
371.0
 21
238.5
 31
0.0
100
AcDbText
  0
TEXT
  5
352
330
18
100
AcDbEntity
  8
LEVEL001
 62
     3
370
    20
100
AcDbText
 10
347.0
 20
234.5
 30
0.0
 40
3.0
  1
    　粗度区分　I 　  II　 III　　IV
 41
0.69230769230769
 72
     5
 11
401.0
 21
234.5
 31
0.0
100
AcDbText
  0
TEXT
  5
353
330
18
100
AcDbEntity
  8
LEVEL001
 62
     3
370
    20
100
AcDbText
 10
347.0
 20
230.5
 30
0.0
 40
3.0
  1
　　　　３０    －    －    ○    ○
 41
0.69230769230769
 72
     5
 11
401.0
 21
230.5
 31
0.0
100
AcDbText
  0
TEXT
  5
354
330
18
100
AcDbEntity
  8
LEVEL001
 62
     3
370
    20
100
AcDbText
 10
347.0
 20
226.5
 30
0.0
 40
3.0
  1
　　　　３２    －    －    ○    ○
 41
0.69230769230769
 72
     5
 11
401.0
 21
226.5
 31
0.0
100
AcDbText
  0
TEXT
  5
355
330
18
100
AcDbEntity
  8
LEVEL001
 62
     3
370
    20
100
AcDbText
 10
347.0
 20
222.5
 30
0.0
 40
3.0
  1
　　　　３４    －    －    －    ○
 41
0.69230769230769
 72
     5
 11
401.0
 21
222.5
 31
0.0
100
AcDbText
  0
TEXT
  5
356
330
18
100
AcDbEntity
  8
LEVEL001
 62
     3
370
    20
100
AcDbText
 10
347.0
 20
218.5
 30
0.0
 40
3.0
  1
　　　　３６    －    －    －    ○
 41
0.69230769230769
 72
     5
 11
401.0
 21
218.5
 31
0.0
100
AcDbText
  0
TEXT
  5
357
330
18
100
AcDbEntity
  8
LEVEL001
 62
     3
370
    20
100
AcDbText
 10
347.0
 20
214.5
 30
0.0
 40
3.0
  1
　　　　３８    －    －    －    ○
 41
0.69230769230769
 72
     5
 11
401.0
 21
214.5
 31
0.0
100
AcDbText
  0
TEXT
  5
358
330
18
100
AcDbEntity
  8
LEVEL001
 62
     3
370
    20
100
AcDbText
 10
347.0
 20
210.5
 30
0.0
 40
3.0
  1
　　　　４０    －    －    －    ○
 41
0.69230769230769
 72
     5
 11
401.0
 21
210.5
 31
0.0
100
AcDbText
  0
TEXT
  5
359
330
18
100
AcDbEntity
  8
LEVEL001
 62
     3
370
    20
100
AcDbText
 10
347.0
 20
206.5
 30
0.0
 40
3.0
  1
　　　　４２    －    －    －    －
 41
0.69230769230769
 72
     5
 11
401.0
 21
206.5
 31
0.0
100
AcDbText
  0
TEXT
  5
35A
330
18
100
AcDbEntity
  8
LEVEL001
 62
     3
370
    20
100
AcDbText
 10
347.0
 20
202.5
 30
0.0
 40
3.0
  1
　　　　４４    －    －    －    －
 41
0.69230769230769
 72
     5
 11
401.0
 21
202.5
 31
0.0
100
AcDbText
  0
TEXT
  5
35B
330
18
100
AcDbEntity
  8
LEVEL001
 62
     3
370
    20
100
AcDbText
 10
347.0
 20
198.5
 30
0.0
 40
3.0
  1
　　　　４６    －    －    －    －
 41
0.69230769230769
 72
     5
 11
401.0
 21
198.5
 31
0.0
100
AcDbText
  0
TEXT
  5
35C
330
18
100
AcDbEntity
  8
LEVEL001
 62
     3
370
    20
100
AcDbText
 10
347.0
 20
190.5
 30
0.0
 40
3.0
  1
注意事項
 72
     5
 11
359.0
 21
190.5
 31
0.0
100
AcDbText
  0
TEXT
  5
35D
330
18
100
AcDbEntity
  8
LEVEL001
 62
     3
370
    20
100
AcDbText
 10
347.0
 20
186.5
 30
0.0
 40
3.0
  1
・本製品は旗を掲揚する為のポールです。
 72
     5
 11
404.0
 21
186.5
 31
0.0
100
AcDbText
  0
TEXT
  5
35E
330
18
100
AcDbEntity
  8
LEVEL001
 62
     3
370
    20
100
AcDbText
 10
347.0
 20
182.5
 30
0.0
 40
3.0
  1
　旗以外のものは掲揚しないで下さい。
 72
     5
 11
401.0
 21
182.5
 31
0.0
100
AcDbText
  0
TEXT
  5
35F
330
18
100
AcDbEntity
  8
LEVEL001
 62
     3
370
    20
100
AcDbText
 10
347.0
 20
178.5
 30
0.0
 40
3.0
  1
　ポール折損の要因となる場合があります。
 72
     5
 11
407.0
 21
178.5
 31
0.0
100
AcDbText
  0
TEXT
  5
360
330
18
100
AcDbEntity
  8
LEVEL001
 62
     3
370
    20
100
AcDbText
 10
347.0
 20
174.5
 30
0.0
 40
3.0
  1
・強風時（瞬間最大風速15m/s時）には旗を
 41
0.88636363636364
 72
     5
 11
405.5
 21
174.5
 31
0.0
100
AcDbText
  0
TEXT
  5
361
330
18
100
AcDbEntity
  8
LEVEL001
 62
     3
370
    20
100
AcDbText
 10
347.0
 20
170.5
 30
0.0
 40
3.0
  1
　取外して下さい。ポール折損の要因となる
 72
     5
 11
407.0
 21
170.5
 31
0.0
100
AcDbText
  0
TEXT
  5
362
330
18
100
AcDbEntity
  8
LEVEL001
 62
     3
370
    20
100
AcDbText
 10
347.0
 20
166.5
 30
0.0
 40
3.0
  1
　場合があります。
 72
     5
 11
374.0
 21
166.5
 31
0.0
100
AcDbText
  0
TEXT
  5
363
330
18
100
AcDbEntity
  8
LEVEL001
 62
     3
370
    20
100
AcDbText
 10
347.0
 20
162.5
 30
0.0
 40
3.0
  1
・毎朝夕の昇降を推奨します。
 72
     5
 11
389.0
 21
162.5
 31
0.0
100
AcDbText
  0
TEXT
  5
364
330
18
100
AcDbEntity
  8
LEVEL001
 62
     3
370
    20
100
AcDbText
 10
347.0
 20
158.5
 30
0.0
 40
3.0
  1
・製品改良のため、一部仕様変更を
 72
     5
 11
395.0
 21
158.5
 31
0.0
100
AcDbText
  0
TEXT
  5
365
330
18
100
AcDbEntity
  8
LEVEL001
 62
     3
370
    20
100
AcDbText
 10
347.0
 20
154.5
 30
0.0
 40
3.0
  1
　する場合があります。
 72
     5
 11
380.0
 21
154.5
 31
0.0
100
AcDbText
  0
ENDSEC
  0
SECTION
  2
OBJECTS
  0
DICTIONARY
  5
C
330
0
100
AcDbDictionary
281
     1
  3
ACAD_DETAILVIEWSTYLE
350
3E8
  3
ACAD_GROUP
350
D
  3
ACAD_LAYOUT
350
367
  3
ACAD_MATERIAL
350
3A5
  3
ACAD_MLEADERSTYLE
350
3E6
  3
ACAD_MLINESTYLE
350
1B
  3
ACAD_PLOTSTYLENAME
350
3A9
  3
ACAD_SCALELIST
350
36A
  3
ACAD_SECTIONVIEWSTYLE
350
3E9
  3
ACAD_TABLESTYLE
350
3E5
  3
ACAD_VISUALSTYLE
350
38C
  3
AcDbVariableDictionary
350
3AD
  0
DICTIONARY
  5
3AB
330
8
100
AcDbDictionary
280
     1
281
     1
  3
ACAD_XREC_ROUNDTRIP
360
3AC
  0
DICTIONARY
  5
3E8
102
{ACAD_REACTORS
330
C
102
}
330
C
100
AcDbDictionary
281
     1
  0
DICTIONARY
  5
D
102
{ACAD_REACTORS
330
C
102
}
330
C
100
AcDbDictionary
281
     1
  0
DICTIONARY
  5
367
102
{ACAD_REACTORS
330
C
102
}
330
C
100
AcDbDictionary
281
     1
  3
Layout1
350
369
  3
Model
350
368
  0
DICTIONARY
  5
3A5
102
{ACAD_REACTORS
330
C
102
}
330
C
100
AcDbDictionary
281
     1
  3
ByBlock
350
3A7
  3
ByLayer
350
3A6
  3
Global
350
3A8
  0
DICTIONARY
  5
3E6
102
{ACAD_REACTORS
330
C
102
}
330
C
100
AcDbDictionary
281
     1
  0
DICTIONARY
  5
1B
102
{ACAD_REACTORS
330
C
102
}
330
C
100
AcDbDictionary
281
     1
  0
ACDBDICTIONARYWDFLT
  5
3A9
102
{ACAD_REACTORS
330
C
102
}
330
C
100
AcDbDictionary
281
     1
  3
Normal
350
3AA
100
AcDbDictionaryWithDefault
340
3AA
  0
DICTIONARY
  5
36A
102
{ACAD_REACTORS
330
C
102
}
330
C
100
AcDbDictionary
281
     1
  3
A0
350
36B
  3
A1
350
36C
  3
A2
350
36D
  3
A3
350
36E
  3
A4
350
36F
  3
A5
350
370
  3
A6
350
371
  3
A7
350
372
  3
A8
350
373
  3
A9
350
374
  3
B0
350
375
  3
B1
350
376
  3
B2
350
377
  3
B3
350
378
  3
B4
350
379
  3
B5
350
37A
  3
B6
350
37B
  3
B7
350
37C
  3
B8
350
37D
  3
B9
350
37E
  3
C0
350
37F
  3
C1
350
380
  3
C2
350
381
  3
C3
350
382
  3
C4
350
383
  3
C5
350
384
  3
C6
350
385
  3
C7
350
386
  3
C8
350
387
  3
C9
350
388
  3
D0
350
389
  3
D1
350
38A
  3
D2
350
38B
  0
DICTIONARY
  5
3E9
102
{ACAD_REACTORS
330
C
102
}
330
C
100
AcDbDictionary
281
     1
  0
DICTIONARY
  5
3E5
102
{ACAD_REACTORS
330
C
102
}
330
C
100
AcDbDictionary
281
     1
  0
DICTIONARY
  5
38C
102
{ACAD_REACTORS
330
C
102
}
330
C
100
AcDbDictionary
281
     1
  3
2dWireframe
350
391
  3
Basic
350
394
  3
Brighten
350
398
  3
ColorChange
350
39C
  3
Conceptual
350
396
  3
Dim
350
397
  3
EdgeColorOff
350
39F
  3
Facepattern
350
39B
  3
Flat
350
38D
  3
FlatWithEdges
350
38E
  3
Gouraud
350
38F
  3
GouraudWithEdges
350
390
  3
Hidden
350
393
  3
JitterOff
350
39D
  3
Linepattern
350
39A
  3
OverhangOff
350
39E
  3
Realistic
350
395
  3
Shaded
350
3A4
  3
Shaded with edges
350
3A3
  3
Shades of Gray
350
3A0
  3
Sketchy
350
3A1
  3
Thicken
350
399
  3
Wireframe
350
392
  3
X-Ray
350
3A2
  0
DICTIONARY
  5
3AD
102
{ACAD_REACTORS
330
C
102
}
330
C
100
AcDbDictionary
281
     1
  3
CANNOSCALE
350
3AE
  3
MSLTSCALE
350
3E7
  0
XRECORD
  5
3AC
102
{ACAD_REACTORS
330
3AB
102
}
330
3AB
100
AcDbXrecord
280
     1
102
VTR_0.000_0.000_1.000_1.000_VISUALSTYLE
340
391
102
VTR_0.000_0.000_1.000_1.000_GRIDDISPLAY
 70
     3
102
VTR_0.000_0.000_1.000_1.000_GRIDMAJOR
 70
     5
102
VTR_0.000_0.000_1.000_1.000_DEFAULTLIGHTING
280
     1
102
VTR_0.000_0.000_1.000_1.000_DEFAULTLIGHTINGTYPE
 70
     1
102
VTR_0.000_0.000_1.000_1.000_BRIGHTNESS
141
0.0
102
VTR_0.000_0.000_1.000_1.000_CONTRAST
142
0.0
  0
LAYOUT
  5
369
102
{ACAD_REACTORS
330
367
102
}
330
367
100
AcDbPlotSettings
  1

  2
none_device
  4

  6

 40
0.0
 41
0.0
 42
0.0
 43
0.0
 44
0.0
 45
0.0
 46
0.0
 47
0.0
 48
0.0
 49
0.0
140
0.0
141
0.0
142
1.0
143
1.0
 70
   688
 72
     0
 73
     0
 74
     5
  7

 75
    16
 76
     0
 77
     2
 78
   300
147
1.0
148
0.0
149
0.0
100
AcDbLayout
  1
Layout1
 70
     1
 71
     1
 10
0.0
 20
0.0
 11
12.0
 21
9.0
 12
0.0
 22
0.0
 32
0.0
 14
1.000000000000000E+20
 24
1.000000000000000E+20
 34
1.000000000000000E+20
 15
-1.000000000000000E+20
 25
-1.000000000000000E+20
 35
-1.000000000000000E+20
146
0.0
 13
0.0
 23
0.0
 33
0.0
 16
1.0
 26
0.0
 36
0.0
 17
0.0
 27
1.0
 37
0.0
 76
     0
330
15
  0
LAYOUT
  5
368
102
{ACAD_REACTORS
330
367
102
}
330
367
100
AcDbPlotSettings
  1

  2
none_device
  4
Letter_(8.50_x_11.00_Inches)
  6

 40
6.35
 41
6.35
 42
6.35000508
 43
6.35000508
 44
215.9
 45
279.4
 46
0.0
 47
0.0
 48
0.0
 49
0.0
140
0.0
141
0.0
142
1.0
143
77.63636557727389
 70
  1712
 72
     0
 73
     0
 74
     0
  7

 75
     0
 76
     0
 77
     2
 78
   300
147
0.0128805617388757
148
2553.854545454658
149
1562.1
100
AcDbLayout
  1
Model
 70
     1
 71
     0
 10
0.0
 20
0.0
 11
420.0
 21
297.0
 12
0.0
 22
0.0
 32
0.0
 14
0.0
 24
0.0
 34
0.0
 15
420.0
 25
297.0
 35
0.0
146
0.0
 13
0.0
 23
0.0
 33
0.0
 16
1.0
 26
0.0
 36
0.0
 17
0.0
 27
1.0
 37
0.0
 76
     0
330
18
331
366
  0
MATERIAL
  5
3A7
102
{ACAD_REACTORS
330
3A5
102
}
102
{ACAD_XDICTIONARY
360
3E1
102
}
330
3A5
100
AcDbMaterial
  1
ByBlock
  0
MATERIAL
  5
3A6
102
{ACAD_REACTORS
330
3A5
102
}
102
{ACAD_XDICTIONARY
360
3DF
102
}
330
3A5
100
AcDbMaterial
  1
ByLayer
  0
MATERIAL
  5
3A8
102
{ACAD_REACTORS
330
3A5
102
}
102
{ACAD_XDICTIONARY
360
3E3
102
}
330
3A5
100
AcDbMaterial
  1
Global
  0
ACDBPLACEHOLDER
  5
3AA
102
{ACAD_REACTORS
330
3A9
102
}
330
3A9
  0
SCALE
  5
36B
102
{ACAD_REACTORS
330
36A
102
}
330
36A
100
AcDbScale
 70
     0
300
1:1
140
1.0
141
1.0
290
     1
  0
SCALE
  5
36C
102
{ACAD_REACTORS
330
36A
102
}
330
36A
100
AcDbScale
 70
     0
300
1:2
140
1.0
141
2.0
290
     0
  0
SCALE
  5
36D
102
{ACAD_REACTORS
330
36A
102
}
330
36A
100
AcDbScale
 70
     0
300
1:4
140
1.0
141
4.0
290
     0
  0
SCALE
  5
36E
102
{ACAD_REACTORS
330
36A
102
}
330
36A
100
AcDbScale
 70
     0
300
1:5
140
1.0
141
5.0
290
     0
  0
SCALE
  5
36F
102
{ACAD_REACTORS
330
36A
102
}
330
36A
100
AcDbScale
 70
     0
300
1:8
140
1.0
141
8.0
290
     0
  0
SCALE
  5
370
102
{ACAD_REACTORS
330
36A
102
}
330
36A
100
AcDbScale
 70
     0
300
1:10
140
1.0
141
10.0
290
     0
  0
SCALE
  5
371
102
{ACAD_REACTORS
330
36A
102
}
330
36A
100
AcDbScale
 70
     0
300
1:16
140
1.0
141
16.0
290
     0
  0
SCALE
  5
372
102
{ACAD_REACTORS
330
36A
102
}
330
36A
100
AcDbScale
 70
     0
300
1:20
140
1.0
141
20.0
290
     0
  0
SCALE
  5
373
102
{ACAD_REACTORS
330
36A
102
}
330
36A
100
AcDbScale
 70
     0
300
1:30
140
1.0
141
30.0
290
     0
  0
SCALE
  5
374
102
{ACAD_REACTORS
330
36A
102
}
330
36A
100
AcDbScale
 70
     0
300
1:40
140
1.0
141
40.0
290
     0
  0
SCALE
  5
375
102
{ACAD_REACTORS
330
36A
102
}
330
36A
100
AcDbScale
 70
     0
300
1:50
140
1.0
141
50.0
290
     0
  0
SCALE
  5
376
102
{ACAD_REACTORS
330
36A
102
}
330
36A
100
AcDbScale
 70
     0
300
1:100
140
1.0
141
100.0
290
     0
  0
SCALE
  5
377
102
{ACAD_REACTORS
330
36A
102
}
330
36A
100
AcDbScale
 70
     0
300
2:1
140
2.0
141
1.0
290
     0
  0
SCALE
  5
378
102
{ACAD_REACTORS
330
36A
102
}
330
36A
100
AcDbScale
 70
     0
300
4:1
140
4.0
141
1.0
290
     0
  0
SCALE
  5
379
102
{ACAD_REACTORS
330
36A
102
}
330
36A
100
AcDbScale
 70
     0
300
8:1
140
8.0
141
1.0
290
     0
  0
SCALE
  5
37A
102
{ACAD_REACTORS
330
36A
102
}
330
36A
100
AcDbScale
 70
     0
300
10:1
140
10.0
141
1.0
290
     0
  0
SCALE
  5
37B
102
{ACAD_REACTORS
330
36A
102
}
330
36A
100
AcDbScale
 70
     0
300
100:1
140
100.0
141
1.0
290
     0
  0
SCALE
  5
37C
102
{ACAD_REACTORS
330
36A
102
}
330
36A
100
AcDbScale
 70
     0
300
1/128" = 1'-0"
140
0.0078125
141
12.0
290
     0
  0
SCALE
  5
37D
102
{ACAD_REACTORS
330
36A
102
}
330
36A
100
AcDbScale
 70
     0
300
1/64" = 1'-0"
140
0.015625
141
12.0
290
     0
  0
SCALE
  5
37E
102
{ACAD_REACTORS
330
36A
102
}
330
36A
100
AcDbScale
 70
     0
300
1/32" = 1'-0"
140
0.03125
141
12.0
290
     0
  0
SCALE
  5
37F
102
{ACAD_REACTORS
330
36A
102
}
330
36A
100
AcDbScale
 70
     0
300
1/16" = 1'-0"
140
0.0625
141
12.0
290
     0
  0
SCALE
  5
380
102
{ACAD_REACTORS
330
36A
102
}
330
36A
100
AcDbScale
 70
     0
300
3/32" = 1'-0"
140
0.09375
141
12.0
290
     0
  0
SCALE
  5
381
102
{ACAD_REACTORS
330
36A
102
}
330
36A
100
AcDbScale
 70
     0
300
1/8" = 1'-0"
140
0.125
141
12.0
290
     0
  0
SCALE
  5
382
102
{ACAD_REACTORS
330
36A
102
}
330
36A
100
AcDbScale
 70
     0
300
3/16" = 1'-0"
140
0.1875
141
12.0
290
     0
  0
SCALE
  5
383
102
{ACAD_REACTORS
330
36A
102
}
330
36A
100
AcDbScale
 70
     0
300
1/4" = 1'-0"
140
0.25
141
12.0
290
     0
  0
SCALE
  5
384
102
{ACAD_REACTORS
330
36A
102
}
330
36A
100
AcDbScale
 70
     0
300
3/8" = 1'-0"
140
0.375
141
12.0
290
     0
  0
SCALE
  5
385
102
{ACAD_REACTORS
330
36A
102
}
330
36A
100
AcDbScale
 70
     0
300
1/2" = 1'-0"
140
0.5
141
12.0
290
     0
  0
SCALE
  5
386
102
{ACAD_REACTORS
330
36A
102
}
330
36A
100
AcDbScale
 70
     0
300
3/4" = 1'-0"
140
0.75
141
12.0
290
     0
  0
SCALE
  5
387
102
{ACAD_REACTORS
330
36A
102
}
330
36A
100
AcDbScale
 70
     0
300
1" = 1'-0"
140
1.0
141
12.0
290
     0
  0
SCALE
  5
388
102
{ACAD_REACTORS
330
36A
102
}
330
36A
100
AcDbScale
 70
     0
300
1-1/2" = 1'-0"
140
1.5
141
12.0
290
     0
  0
SCALE
  5
389
102
{ACAD_REACTORS
330
36A
102
}
330
36A
100
AcDbScale
 70
     0
300
3" = 1'-0"
140
3.0
141
12.0
290
     0
  0
SCALE
  5
38A
102
{ACAD_REACTORS
330
36A
102
}
330
36A
100
AcDbScale
 70
     0
300
6" = 1'-0"
140
6.0
141
12.0
290
     0
  0
SCALE
  5
38B
102
{ACAD_REACTORS
330
36A
102
}
330
36A
100
AcDbScale
 70
     0
300
1'-0" = 1'-0"
140
12.0
141
12.0
290
     0
  0
VISUALSTYLE
  5
391
102
{ACAD_REACTORS
330
38C
102
}
102
{ACAD_XDICTIONARY
360
3B7
102
}
330
38C
100
AcDbVisualStyle
  2
2dWireframe
 70
     4
 71
     0
 72
     2
 73
     0
 90
        0
 40
0.6
 41
30.0
 62
     5
 63
     7
421
 16777215
 74
     1
 91
        4
 64
     7
 65
   257
 75
     1
175
     1
 42
1.0
 92
        0
 66
   257
 43
1.0
 76
     1
 77
     6
 78
     2
 67
     7
 79
     5
170
     0
171
     0
290
     0
174
     0
 93
        1
 44
0.0
173
     0
291
     0
 45
0.0
1001
ACAD
1000
AcDbSavedByObjectVersion
1070
     0
  0
VISUALSTYLE
  5
394
102
{ACAD_REACTORS
330
38C
102
}
102
{ACAD_XDICTIONARY
360
3BD
102
}
330
38C
100
AcDbVisualStyle
  2
Basic
 70
     7
 71
     1
 72
     0
 73
     1
 90
        0
 40
0.6
 41
30.0
 62
     5
 63
     7
421
 16777215
 74
     0
 91
        4
 64
     7
 65
   257
 75
     1
175
     1
 42
1.0
 92
        8
 66
     7
 43
1.0
 76
     1
 77
     6
 78
     2
 67
     7
 79
     5
170
     0
171
     0
290
     0
174
     0
 93
        1
 44
0.0
173
     0
291
     1
 45
0.0
1001
ACAD
1000
AcDbSavedByObjectVersion
1070
     0
  0
VISUALSTYLE
  5
398
102
{ACAD_REACTORS
330
38C
102
}
102
{ACAD_XDICTIONARY
360
3C5
102
}
330
38C
100
AcDbVisualStyle
  2
Brighten
 70
    12
 71
     2
 72
     2
 73
     0
 90
        0
 40
0.6
 41
30.0
 62
     5
 63
     7
421
 16777215
 74
     1
 91
        4
 64
     7
 65
   257
 75
     1
175
     1
 42
1.0
 92
        8
 66
     7
 43
1.0
 76
     1
 77
     6
 78
     2
 67
     7
 79
     5
170
     0
171
     0
290
     0
174
     0
 93
        1
 44
50.0
173
     0
291
     1
 45
0.0
1001
ACAD
1000
AcDbSavedByObjectVersion
1070
     0
  0
VISUALSTYLE
  5
39C
102
{ACAD_REACTORS
330
38C
102
}
102
{ACAD_XDICTIONARY
360
3CD
102
}
330
38C
100
AcDbVisualStyle
  2
ColorChange
 70
    16
 71
     2
 72
     2
 73
     3
 90
        0
 40
0.6
 41
30.0
 62
     5
 63
     8
421
  8421504
 74
     1
 91
        4
 64
     7
 65
   257
 75
     1
175
     1
 42
1.0
 92
        8
 66
     8
424
  8421504
 43
1.0
 76
     1
 77
     6
 78
     2
 67
     7
 79
     5
170
     0
171
     0
290
     0
174
     0
 93
        1
 44
0.0
173
     0
291
     1
 45
0.0
1001
ACAD
1000
AcDbSavedByObjectVersion
1070
     0
  0
VISUALSTYLE
  5
396
102
{ACAD_REACTORS
330
38C
102
}
102
{ACAD_XDICTIONARY
360
3C1
102
}
330
38C
100
AcDbVisualStyle
  2
Conceptual
 70
     9
 71
     3
 72
     2
 73
     0
 90
        0
 40
0.6
 41
30.0
 62
     5
 63
     7
421
 16777215
 74
     2
 91
        2
 64
     7
 65
   257
 75
     1
175
     1
 42
179.0
 92
        8
 66
     7
 43
1.0
 76
     1
 77
     6
 78
     2
 67
     7
 79
     3
170
     0
171
     0
290
     0
174
     0
 93
        1
 44
0.0
173
     0
291
     0
 45
0.0
1001
ACAD
1000
AcDbSavedByObjectVersion
1070
     0
  0
VISUALSTYLE
  5
397
102
{ACAD_REACTORS
330
38C
102
}
102
{ACAD_XDICTIONARY
360
3C3
102
}
330
38C
100
AcDbVisualStyle
  2
Dim
 70
    11
 71
     2
 72
     2
 73
     0
 90
        0
 40
0.6
 41
30.0
 62
     5
 63
     7
421
 16777215
 74
     1
 91
        4
 64
     7
 65
   257
 75
     1
175
     1
 42
1.0
 92
        8
 66
     7
 43
1.0
 76
     1
 77
     6
 78
     2
 67
     7
 79
     5
170
     0
171
     0
290
     0
174
     0
 93
        1
 44
-50.0
173
     0
291
     1
 45
0.0
1001
ACAD
1000
AcDbSavedByObjectVersion
1070
     0
  0
VISUALSTYLE
  5
39F
102
{ACAD_REACTORS
330
38C
102
}
102
{ACAD_XDICTIONARY
360
3D3
102
}
330
38C
100
AcDbVisualStyle
  2
EdgeColorOff
 70
    22
 71
     2
 72
     2
 73
     0
 90
        0
 40
0.6
 41
30.0
 62
     5
 63
     7
421
 16777215
 74
     1
 91
        4
 64
     7
 65
   257
 75
     1
175
     1
 42
1.0
 92
        8
 66
     7
 43
1.0
 76
     1
 77
     6
 78
     2
 67
     7
 79
     5
170
     0
171
     0
290
     0
174
     0
 93
        1
 44
0.0
173
     0
291
     1
 45
0.0
1001
ACAD
1000
AcDbSavedByObjectVersion
1070
     0
  0
VISUALSTYLE
  5
39B
102
{ACAD_REACTORS
330
38C
102
}
102
{ACAD_XDICTIONARY
360
3CB
102
}
330
38C
100
AcDbVisualStyle
  2
Facepattern
 70
    15
 71
     2
 72
     2
 73
     0
 90
        0
 40
0.6
 41
30.0
 62
     5
 63
     7
421
 16777215
 74
     1
 91
        4
 64
     7
 65
   257
 75
     1
175
     1
 42
1.0
 92
        8
 66
     7
 43
1.0
 76
     1
 77
     6
 78
     2
 67
     7
 79
     5
170
     0
171
     0
290
     0
174
     0
 93
        1
 44
0.0
173
     0
291
     1
 45
0.0
1001
ACAD
1000
AcDbSavedByObjectVersion
1070
     0
  0
VISUALSTYLE
  5
38D
102
{ACAD_REACTORS
330
38C
102
}
102
{ACAD_XDICTIONARY
360
3AF
102
}
330
38C
100
AcDbVisualStyle
  2
Flat
 70
     0
 71
     2
 72
     1
 73
     1
 90
        2
 40
0.6
 41
30.0
 62
     5
 63
     7
421
 16777215
 74
     0
 91
        0
 64
     7
 65
   257
 75
     1
175
     1
 42
1.0
 92
        8
 66
     7
 43
1.0
 76
     1
 77
     6
 78
     2
 67
     7
 79
     5
170
     0
171
     0
290
     0
174
     0
 93
       13
 44
0.0
173
     0
291
     1
 45
0.0
1001
ACAD
1000
AcDbSavedByObjectVersion
1070
     0
  0
VISUALSTYLE
  5
38E
102
{ACAD_REACTORS
330
38C
102
}
102
{ACAD_XDICTIONARY
360
3B1
102
}
330
38C
100
AcDbVisualStyle
  2
FlatWithEdges
 70
     1
 71
     2
 72
     1
 73
     1
 90
        2
 40
0.6
 41
30.0
 62
     5
 63
     7
421
 16777215
 74
     1
 91
        0
 64
     7
 65
   257
 75
     1
175
     1
 42
1.0
 92
        0
 66
   257
 43
1.0
 76
     1
 77
     6
 78
     2
 67
     7
 79
     5
170
     0
171
     0
290
     0
174
     0
 93
       13
 44
0.0
173
     0
291
     1
 45
0.0
1001
ACAD
1000
AcDbSavedByObjectVersion
1070
     0
  0
VISUALSTYLE
  5
38F
102
{ACAD_REACTORS
330
38C
102
}
102
{ACAD_XDICTIONARY
360
3B3
102
}
330
38C
100
AcDbVisualStyle
  2
Gouraud
 70
     2
 71
     2
 72
     2
 73
     1
 90
        2
 40
0.6
 41
30.0
 62
     5
 63
     7
421
 16777215
 74
     0
 91
        0
 64
     7
 65
   257
 75
     1
175
     1
 42
1.0
 92
        0
 66
     7
 43
1.0
 76
     1
 77
     6
 78
     2
 67
     7
 79
     5
170
     0
171
     0
290
     0
174
     0
 93
       13
 44
0.0
173
     0
291
     1
 45
0.0
1001
ACAD
1000
AcDbSavedByObjectVersion
1070
     0
  0
VISUALSTYLE
  5
390
102
{ACAD_REACTORS
330
38C
102
}
102
{ACAD_XDICTIONARY
360
3B5
102
}
330
38C
100
AcDbVisualStyle
  2
GouraudWithEdges
 70
     3
 71
     2
 72
     2
 73
     1
 90
        2
 40
0.6
 41
30.0
 62
     5
 63
     7
421
 16777215
 74
     1
 91
        0
 64
     7
 65
   257
 75
     1
175
     1
 42
1.0
 92
        0
 66
   257
 43
1.0
 76
     1
 77
     6
 78
     2
 67
     7
 79
     5
170
     0
171
     0
290
     0
174
     0
 93
       13
 44
0.0
173
     0
291
     1
 45
0.0
1001
ACAD
1000
AcDbSavedByObjectVersion
1070
     0
  0
VISUALSTYLE
  5
393
102
{ACAD_REACTORS
330
38C
102
}
102
{ACAD_XDICTIONARY
360
3BB
102
}
330
38C
100
AcDbVisualStyle
  2
Hidden
 70
     6
 71
     1
 72
     2
 73
     2
 90
        0
 40
0.6
 41
30.0
 62
     5
 63
     7
421
 16777215
 74
     2
 91
        2
 64
     7
 65
   257
 75
     2
175
     1
 42
40.0
 92
        0
 66
   257
 43
1.0
 76
     1
 77
     6
 78
     2
 67
     7
 79
     3
170
     0
171
     0
290
     0
174
     0
 93
        1
 44
0.0
173
     0
291
     0
 45
0.0
1001
ACAD
1000
AcDbSavedByObjectVersion
1070
     0
  0
VISUALSTYLE
  5
39D
102
{ACAD_REACTORS
330
38C
102
}
102
{ACAD_XDICTIONARY
360
3CF
102
}
330
38C
100
AcDbVisualStyle
  2
JitterOff
 70
    20
 71
     2
 72
     2
 73
     0
 90
        0
 40
0.6
 41
30.0
 62
     5
 63
     7
421
 16777215
 74
     1
 91
        4
 64
     7
 65
   257
 75
     1
175
     1
 42
1.0
 92
       10
 66
     7
 43
1.0
 76
     1
 77
     6
 78
     2
 67
     7
 79
     5
170
     0
171
     0
290
     0
174
     0
 93
        1
 44
0.0
173
     0
291
     1
 45
0.0
1001
ACAD
1000
AcDbSavedByObjectVersion
1070
     0
  0
VISUALSTYLE
  5
39A
102
{ACAD_REACTORS
330
38C
102
}
102
{ACAD_XDICTIONARY
360
3C9
102
}
330
38C
100
AcDbVisualStyle
  2
Linepattern
 70
    14
 71
     2
 72
     2
 73
     0
 90
        0
 40
0.6
 41
30.0
 62
     5
 63
     7
421
 16777215
 74
     1
 91
        4
 64
     7
 65
   257
 75
     7
175
     7
 42
1.0
 92
        8
 66
     7
 43
1.0
 76
     1
 77
     6
 78
     2
 67
     7
 79
     5
170
     0
171
     0
290
     0
174
     0
 93
        1
 44
0.0
173
     0
291
     1
 45
0.0
1001
ACAD
1000
AcDbSavedByObjectVersion
1070
     0
  0
VISUALSTYLE
  5
39E
102
{ACAD_REACTORS
330
38C
102
}
102
{ACAD_XDICTIONARY
360
3D1
102
}
330
38C
100
AcDbVisualStyle
  2
OverhangOff
 70
    21
 71
     2
 72
     2
 73
     0
 90
        0
 40
0.6
 41
30.0
 62
     5
 63
     7
421
 16777215
 74
     1
 91
        4
 64
     7
 65
   257
 75
     1
175
     1
 42
1.0
 92
        9
 66
     7
 43
1.0
 76
     1
 77
     6
 78
     2
 67
     7
 79
     5
170
     0
171
     0
290
     0
174
     0
 93
        1
 44
0.0
173
     0
291
     1
 45
0.0
1001
ACAD
1000
AcDbSavedByObjectVersion
1070
     0
  0
VISUALSTYLE
  5
395
102
{ACAD_REACTORS
330
38C
102
}
102
{ACAD_XDICTIONARY
360
3BF
102
}
330
38C
100
AcDbVisualStyle
  2
Realistic
 70
     8
 71
     2
 72
     3
 73
     0
 90
        2
 40
0.6
 41
30.0
 62
     5
 63
     7
421
 16777215
 74
     0
 91
        0
 64
     7
 65
   257
 75
     1
175
     1
 42
1.0
 92
        8
 66
   257
 43
1.0
 76
     1
 77
     6
 78
     2
 67
     7
 79
     3
170
     0
171
     0
290
     0
174
     0
 93
       13
 44
0.0
173
     0
291
     0
 45
0.0
1001
ACAD
1000
AcDbSavedByObjectVersion
1070
     0
  0
VISUALSTYLE
  5
3A4
102
{ACAD_REACTORS
330
38C
102
}
102
{ACAD_XDICTIONARY
360
3DD
102
}
330
38C
100
AcDbVisualStyle
  2
Shaded
 70
    27
 71
     2
 72
     2
 73
     1
 90
        2
 40
0.6
 41
30.0
 62
     5
 63
     7
421
 16777215
 74
     0
 91
        4
 64
     7
 65
   257
 75
     1
175
     1
 42
1.0
 92
        8
 66
   257
 43
1.0
 76
     1
 77
     6
 78
     2
 67
     8
425
  7895160
 79
     3
170
     0
171
     0
290
     0
174
     0
 93
        5
 44
0.0
173
     0
291
     0
 45
0.0
1001
ACAD
1000
AcDbSavedByObjectVersion
1070
     0
  0
VISUALSTYLE
  5
3A3
102
{ACAD_REACTORS
330
38C
102
}
102
{ACAD_XDICTIONARY
360
3DB
102
}
330
38C
100
AcDbVisualStyle
  2
Shaded with edges
 70
    26
 71
     2
 72
     2
 73
     1
 90
        2
 40
0.6
 41
30.0
 62
     5
 63
     7
421
 16777215
 74
     1
 91
       10
 64
     7
 65
   257
 75
     2
175
     1
 42
1.0
 92
        8
 66
   257
 43
1.0
 76
     1
 77
     6
 78
     2
 67
     7
 79
     3
170
     0
171
     0
290
     0
174
     0
 93
        5
 44
0.0
173
     0
291
     0
 45
0.0
1001
ACAD
1000
AcDbSavedByObjectVersion
1070
     0
  0
VISUALSTYLE
  5
3A0
102
{ACAD_REACTORS
330
38C
102
}
102
{ACAD_XDICTIONARY
360
3D5
102
}
330
38C
100
AcDbVisualStyle
  2
Shades of Gray
 70
    23
 71
     2
 72
     2
 73
     3
 90
        0
 40
0.6
 41
30.0
 62
     5
 63
     7
421
 16777215
 74
     2
 91
        2
 64
     7
 65
     7
 75
     1
175
     1
 42
40.0
 92
        8
 66
     7
 43
1.0
 76
     1
 77
     6
 78
     2
 67
     7
 79
     3
170
     0
171
     0
290
     0
174
     0
 93
        1
 44
0.0
173
     0
291
     0
 45
0.0
1001
ACAD
1000
AcDbSavedByObjectVersion
1070
     0
  0
VISUALSTYLE
  5
3A1
102
{ACAD_REACTORS
330
38C
102
}
102
{ACAD_XDICTIONARY
360
3D7
102
}
330
38C
100
AcDbVisualStyle
  2
Sketchy
 70
    24
 71
     1
 72
     2
 73
     2
 90
        0
 40
0.6
 41
30.0
 62
     5
 63
     7
421
 16777215
 74
     2
 91
        2
 64
     7
 65
     7
 75
     1
175
     1
 42
40.0
 92
       11
 66
     7
 43
1.0
 76
     1
 77
     6
 78
     2
 67
     7
 79
     6
170
     0
171
     0
290
     0
174
     0
 93
        1
 44
0.0
173
     0
291
     0
 45
0.0
1001
ACAD
1000
AcDbSavedByObjectVersion
1070
     0
  0
VISUALSTYLE
  5
399
102
{ACAD_REACTORS
330
38C
102
}
102
{ACAD_XDICTIONARY
360
3C7
102
}
330
38C
100
AcDbVisualStyle
  2
Thicken
 70
    13
 71
     2
 72
     2
 73
     0
 90
        0
 40
0.6
 41
30.0
 62
     5
 63
     7
421
 16777215
 74
     1
 91
        4
 64
     7
 65
   257
 75
     1
175
     1
 42
1.0
 92
       12
 66
     7
 43
1.0
 76
     1
 77
     6
 78
     2
 67
     7
 79
     5
170
     0
171
     0
290
     0
174
     0
 93
        1
 44
0.0
173
     0
291
     1
 45
0.0
1001
ACAD
1000
AcDbSavedByObjectVersion
1070
     0
  0
VISUALSTYLE
  5
392
102
{ACAD_REACTORS
330
38C
102
}
102
{ACAD_XDICTIONARY
360
3B9
102
}
330
38C
100
AcDbVisualStyle
  2
Wireframe
 70
     5
 71
     0
 72
     2
 73
     0
 90
        0
 40
0.6
 41
30.0
 62
     5
 63
     7
421
 16777215
 74
     1
 91
        4
 64
     7
 65
   257
 75
     1
175
     1
 42
1.0
 92
        0
 66
   257
 43
1.0
 76
     1
 77
     6
 78
     2
 67
     7
 79
     3
170
     0
171
     0
290
     0
174
     0
 93
        1
 44
0.0
173
     0
291
     0
 45
0.0
1001
ACAD
1000
AcDbSavedByObjectVersion
1070
     0
  0
VISUALSTYLE
  5
3A2
102
{ACAD_REACTORS
330
38C
102
}
102
{ACAD_XDICTIONARY
360
3D9
102
}
330
38C
100
AcDbVisualStyle
  2
X-Ray
 70
    25
 71
     2
 72
     2
 73
     1
 90
        1
 40
0.5
 41
30.0
 62
     5
 63
     7
421
 16777215
 74
     1
 91
        0
 64
     7
 65
   257
 75
     1
175
     1
 42
1.0
 92
        8
 66
     7
 43
1.0
 76
     1
 77
     6
 78
     2
 67
     7
 79
     3
170
     0
171
     0
290
     0
174
     0
 93
       13
 44
0.0
173
     0
291
     0
 45
0.0
1001
ACAD
1000
AcDbSavedByObjectVersion
1070
     0
  0
DICTIONARYVAR
  5
3AE
102
{ACAD_REACTORS
330
3AD
102
}
330
3AD
100
DictionaryVariables
280
     0
  1
1:1
  0
DICTIONARYVAR
  5
3E7
102
{ACAD_REACTORS
330
3AD
102
}
330
3AD
100
DictionaryVariables
280
     0
  1
0
  0
DICTIONARY
  5
3E1
330
3A7
100
AcDbDictionary
280
     1
281
     1
  3
ACAD_XREC_ROUNDTRIP
360
3E2
  0
DICTIONARY
  5
3DF
330
3A6
100
AcDbDictionary
280
     1
281
     1
  3
ACAD_XREC_ROUNDTRIP
360
3E0
  0
DICTIONARY
  5
3E3
330
3A8
100
AcDbDictionary
280
     1
281
     1
  3
ACAD_XREC_ROUNDTRIP
360
3E4
  0
DICTIONARY
  5
3B7
330
391
100
AcDbDictionary
280
     1
281
     1
  3
ACAD_XREC_ROUNDTRIP
360
3B8
  0
DICTIONARY
  5
3BD
330
394
100
AcDbDictionary
280
     1
281
     1
  3
ACAD_XREC_ROUNDTRIP
360
3BE
  0
DICTIONARY
  5
3C5
330
398
100
AcDbDictionary
280
     1
281
     1
  3
ACAD_XREC_ROUNDTRIP
360
3C6
  0
DICTIONARY
  5
3CD
330
39C
100
AcDbDictionary
280
     1
281
     1
  3
ACAD_XREC_ROUNDTRIP
360
3CE
  0
DICTIONARY
  5
3C1
330
396
100
AcDbDictionary
280
     1
281
     1
  3
ACAD_XREC_ROUNDTRIP
360
3C2
  0
DICTIONARY
  5
3C3
330
397
100
AcDbDictionary
280
     1
281
     1
  3
ACAD_XREC_ROUNDTRIP
360
3C4
  0
DICTIONARY
  5
3D3
330
39F
100
AcDbDictionary
280
     1
281
     1
  3
ACAD_XREC_ROUNDTRIP
360
3D4
  0
DICTIONARY
  5
3CB
330
39B
100
AcDbDictionary
280
     1
281
     1
  3
ACAD_XREC_ROUNDTRIP
360
3CC
  0
DICTIONARY
  5
3AF
330
38D
100
AcDbDictionary
280
     1
281
     1
  3
ACAD_XREC_ROUNDTRIP
360
3B0
  0
DICTIONARY
  5
3B1
330
38E
100
AcDbDictionary
280
     1
281
     1
  3
ACAD_XREC_ROUNDTRIP
360
3B2
  0
DICTIONARY
  5
3B3
330
38F
100
AcDbDictionary
280
     1
281
     1
  3
ACAD_XREC_ROUNDTRIP
360
3B4
  0
DICTIONARY
  5
3B5
330
390
100
AcDbDictionary
280
     1
281
     1
  3
ACAD_XREC_ROUNDTRIP
360
3B6
  0
DICTIONARY
  5
3BB
330
393
100
AcDbDictionary
280
     1
281
     1
  3
ACAD_XREC_ROUNDTRIP
360
3BC
  0
DICTIONARY
  5
3CF
330
39D
100
AcDbDictionary
280
     1
281
     1
  3
ACAD_XREC_ROUNDTRIP
360
3D0
  0
DICTIONARY
  5
3C9
330
39A
100
AcDbDictionary
280
     1
281
     1
  3
ACAD_XREC_ROUNDTRIP
360
3CA
  0
DICTIONARY
  5
3D1
330
39E
100
AcDbDictionary
280
     1
281
     1
  3
ACAD_XREC_ROUNDTRIP
360
3D2
  0
DICTIONARY
  5
3BF
330
395
100
AcDbDictionary
280
     1
281
     1
  3
ACAD_XREC_ROUNDTRIP
360
3C0
  0
DICTIONARY
  5
3DD
330
3A4
100
AcDbDictionary
280
     1
281
     1
  3
ACAD_XREC_ROUNDTRIP
360
3DE
  0
DICTIONARY
  5
3DB
330
3A3
100
AcDbDictionary
280
     1
281
     1
  3
ACAD_XREC_ROUNDTRIP
360
3DC
  0
DICTIONARY
  5
3D5
330
3A0
100
AcDbDictionary
280
     1
281
     1
  3
ACAD_XREC_ROUNDTRIP
360
3D6
  0
DICTIONARY
  5
3D7
330
3A1
100
AcDbDictionary
280
     1
281
     1
  3
ACAD_XREC_ROUNDTRIP
360
3D8
  0
DICTIONARY
  5
3C7
330
399
100
AcDbDictionary
280
     1
281
     1
  3
ACAD_XREC_ROUNDTRIP
360
3C8
  0
DICTIONARY
  5
3B9
330
392
100
AcDbDictionary
280
     1
281
     1
  3
ACAD_XREC_ROUNDTRIP
360
3BA
  0
DICTIONARY
  5
3D9
330
3A2
100
AcDbDictionary
280
     1
281
     1
  3
ACAD_XREC_ROUNDTRIP
360
3DA
  0
XRECORD
  5
3E2
102
{ACAD_REACTORS
330
3E1
102
}
330
3E1
100
AcDbXrecord
280
     1
102
MATERIAL
148
0.0
149
0.0
149
0.0
 93
        0
 94
      127
282
     0
 72
     1
 77
     1
171
     1
175
     1
179
     1
273
     0
  0
XRECORD
  5
3E0
102
{ACAD_REACTORS
330
3DF
102
}
330
3DF
100
AcDbXrecord
280
     1
102
MATERIAL
148
0.0
149
0.0
149
0.0
 93
        0
 94
      127
282
     0
 72
     1
 77
     1
171
     1
175
     1
179
     1
273
     0
  0
XRECORD
  5
3E4
102
{ACAD_REACTORS
330
3E3
102
}
330
3E3
100
AcDbXrecord
280
     1
102
MATERIAL
148
0.0
149
0.0
149
0.0
 93
        0
 94
      127
282
     0
 72
     1
 77
     1
171
     1
175
     1
179
     1
273
     0
  0
XRECORD
  5
3B8
102
{ACAD_REACTORS
330
3B7
102
}
330
3B7
100
AcDbXrecord
280
     1
102
RTVSPropertyOp0
 70
     1
102
RTVSPropertyOp1
 70
     1
102
RTVSPropertyOp2
 70
     1
102
RTVSPropertyOp3
 70
     1
102
RTVSPropertyOp4
 70
     1
102
RTVSPropertyOp5
 70
     1
102
RTVSPropertyOp6
 70
     1
102
RTVSPropertyOp7
 70
     1
102
RTVSPropertyOp8
 70
     1
102
RTVSPropertyOp9
 70
     1
102
RTVSPropertyOp10
 70
     1
102
RTVSPropertyOp11
 70
     1
102
RTVSPropertyOp12
 70
     1
102
RTVSPropertyOp13
 70
     1
102
RTVSPropertyOp14
 70
     1
102
RTVSPropertyOp15
 70
     1
102
RTVSPropertyOp16
 70
     1
102
RTVSPropertyOp17
 70
     1
102
RTVSPropertyOp18
 70
     1
102
RTVSPropertyOp19
 70
     1
102
RTVSPropertyOp20
 70
     1
102
RTVSPropertyOp21
 70
     1
102
RTVSPropertyOp22
 70
     1
102
RTVSPropertyOp23
 70
     1
102
RTVSPropertyOp24
 70
     1
102
RTVSPropertyOp25
 70
     1
102
RTVSPropertyOp26
 70
     1
102
RTVSPropertyOp27
 70
     1
102
RTVSPropertyOp28
 70
     1
102
RTVSPropertyOp29
 70
     1
102
RTVSPropertyOp30
 70
     1
102
RTVSPropertyOp31
 70
     1
102
RTVSPropertyOp32
 70
     1
102
RTVSPropertyOp33
 70
     1
102
RTVSPropertyOp34
 70
     1
102
RTVSPropertyOp35
 70
     1
102
RTVSPropertyOp36
 70
     1
102
RTVSPropertyOp37
 70
     1
102
RTVSPropertyOp38
 70
     1
102
RTVSPropertyOp39
 70
     1
102
RTVSPropertyOp40
 70
     1
102
RTVSPropertyOp41
 70
     1
102
RTVSPropertyOp42
 70
     1
102
RTVSPropertyOp43
 70
     1
102
RTVSPropertyOp44
 70
     1
102
RTVSPropertyOp45
 70
     1
102
RTVSPropertyOp46
 70
     1
102
RTVSPropertyOp47
 70
     1
102
RTVSPropertyOp48
 70
     1
102
RTVSPropertyOp49
 70
     1
102
RTVSPropertyOp50
 70
     1
102
RTVSPropertyOp51
 70
     0
102
RTVSPropertyOp52
 70
     0
102
RTVSPropertyOp53
 70
     1
102
RTVSPropertyOp54
 70
     1
102
RTVSPropertyOp55
 70
     1
102
RTVSPropertyOp56
 70
     1
102
RTVSPropertyOp57
 70
     1
102
RTVSPost2010Prop28
280
     1
102
RTVSPost2010PropOp28
 70
     1
102
RTVSPost2010Prop29
280
     1
102
RTVSPost2010PropOp29
 70
     1
102
RTVSPost2010Prop30
280
     0
102
RTVSPost2010PropOp30
 70
     1
102
RTVSPost2010Prop31
280
     0
102
RTVSPost2010PropOp31
 70
     1
102
RTVSPost2010Prop32
280
     0
102
RTVSPost2010PropOp32
 70
     1
102
RTVSPost2010Prop33
280
     0
102
RTVSPost2010PropOp33
 70
     1
102
RTVSPost2010Prop34
280
     0
102
RTVSPost2010PropOp34
 70
     1
102
RTVSPost2010Prop35
280
     0
102
RTVSPost2010PropOp35
 70
     1
102
RTVSPost2010Prop36
280
     0
102
RTVSPost2010PropOp36
 70
     1
102
RTVSPost2010Prop37
 90
       50
102
RTVSPost2010PropOp37
 70
     1
102
RTVSPost2010Prop38
140
0.0
102
RTVSPost2010PropOp38
 70
     1
102
RTVSPost2010Prop39
140
1.0
102
RTVSPost2010PropOp39
 70
     1
102
RTVSPost2010Prop40
 90
        0
102
RTVSPost2010PropOp40
 70
     1
102
RTVSPost2010Prop41ColorIndex
 90
       18
102
RTVSPost2010Prop41ColorRGB
 90
        0
102
RTVSPost2010PropOp41
 70
     1
102
RTVSPost2010Prop42
 90
       50
102
RTVSPost2010PropOp42
 70
     1
102
RTVSPost2010Prop43
 90
        3
102
RTVSPost2010PropOp43
 70
     1
102
RTVSPost2010Prop44ColorIndex
 90
        5
102
RTVSPost2010Prop44ColorRGB
 90
      255
102
RTVSPost2010PropOp44
 70
     1
102
RTVSPost2010Prop45
280
     0
102
RTVSPost2010PropOp45
 70
     1
102
RTVSPost2010Prop46
 90
       50
102
RTVSPost2010PropOp46
 70
     1
102
RTVSPost2010Prop47
 90
       50
102
RTVSPost2010PropOp47
 70
     1
102
RTVSPost2010Prop48
 90
       50
102
RTVSPost2010PropOp48
 70
     1
102
RTVSPost2010Prop49
280
     0
102
RTVSPost2010PropOp49
 70
     1
102
RTVSPost2010Prop50
 90
       50
102
RTVSPost2010PropOp50
 70
     1
102
RTVSPost2010Prop51ColorIndex
 90
      256
102
RTVSPost2010Prop51ColorRGB
 90
-16777216
102
RTVSPost2010PropOp51
 70
     0
102
RTVSPost2010Prop52
140
1.0
102
RTVSPost2010PropOp52
 70
     0
102
RTVSPost2010Prop53
 90
        2
102
RTVSPost2010PropOp53
 70
     1
102
RTVSPost2010Prop54
  1
strokes_ogs.tif
102
RTVSPost2010PropOp54
 70
     1
102
RTVSPost2010Prop55
280
     0
102
RTVSPost2010PropOp55
 70
     1
102
RTVSPost2010Prop56
140
1.0
102
RTVSPost2010PropOp56
 70
     1
102
RTVSPost2010Prop57
140
1.0
102
RTVSPost2010PropOp57
 70
     1
  0
XRECORD
  5
3BE
102
{ACAD_REACTORS
330
3BD
102
}
330
3BD
100
AcDbXrecord
280
     1
102
RTVSPropertyOp0
 70
     1
102
RTVSPropertyOp1
 70
     1
102
RTVSPropertyOp2
 70
     1
102
RTVSPropertyOp3
 70
     1
102
RTVSPropertyOp4
 70
     1
102
RTVSPropertyOp5
 70
     1
102
RTVSPropertyOp6
 70
     1
102
RTVSPropertyOp7
 70
     1
102
RTVSPropertyOp8
 70
     1
102
RTVSPropertyOp9
 70
     1
102
RTVSPropertyOp10
 70
     1
102
RTVSPropertyOp11
 70
     1
102
RTVSPropertyOp12
 70
     1
102
RTVSPropertyOp13
 70
     1
102
RTVSPropertyOp14
 70
     1
102
RTVSPropertyOp15
 70
     1
102
RTVSPropertyOp16
 70
     1
102
RTVSPropertyOp17
 70
     1
102
RTVSPropertyOp18
 70
     1
102
RTVSPropertyOp19
 70
     1
102
RTVSPropertyOp20
 70
     1
102
RTVSPropertyOp21
 70
     1
102
RTVSPropertyOp22
 70
     1
102
RTVSPropertyOp23
 70
     1
102
RTVSPropertyOp24
 70
     1
102
RTVSPropertyOp25
 70
     1
102
RTVSPropertyOp26
 70
     1
102
RTVSPropertyOp27
 70
     1
102
RTVSPropertyOp28
 70
     1
102
RTVSPropertyOp29
 70
     1
102
RTVSPropertyOp30
 70
     1
102
RTVSPropertyOp31
 70
     1
102
RTVSPropertyOp32
 70
     1
102
RTVSPropertyOp33
 70
     1
102
RTVSPropertyOp34
 70
     1
102
RTVSPropertyOp35
 70
     1
102
RTVSPropertyOp36
 70
     1
102
RTVSPropertyOp37
 70
     1
102
RTVSPropertyOp38
 70
     1
102
RTVSPropertyOp39
 70
     1
102
RTVSPropertyOp40
 70
     1
102
RTVSPropertyOp41
 70
     1
102
RTVSPropertyOp42
 70
     1
102
RTVSPropertyOp43
 70
     1
102
RTVSPropertyOp44
 70
     1
102
RTVSPropertyOp45
 70
     1
102
RTVSPropertyOp46
 70
     1
102
RTVSPropertyOp47
 70
     1
102
RTVSPropertyOp48
 70
     1
102
RTVSPropertyOp49
 70
     1
102
RTVSPropertyOp50
 70
     1
102
RTVSPropertyOp51
 70
     0
102
RTVSPropertyOp52
 70
     0
102
RTVSPropertyOp53
 70
     1
102
RTVSPropertyOp54
 70
     1
102
RTVSPropertyOp55
 70
     1
102
RTVSPropertyOp56
 70
     1
102
RTVSPropertyOp57
 70
     1
102
RTVSPost2010Prop28
280
     0
102
RTVSPost2010PropOp28
 70
     1
102
RTVSPost2010Prop29
280
     1
102
RTVSPost2010PropOp29
 70
     1
102
RTVSPost2010Prop30
280
     1
102
RTVSPost2010PropOp30
 70
     1
102
RTVSPost2010Prop31
280
     0
102
RTVSPost2010PropOp31
 70
     1
102
RTVSPost2010Prop32
280
     0
102
RTVSPost2010PropOp32
 70
     1
102
RTVSPost2010Prop33
280
     0
102
RTVSPost2010PropOp33
 70
     1
102
RTVSPost2010Prop34
280
     0
102
RTVSPost2010PropOp34
 70
     1
102
RTVSPost2010Prop35
280
     0
102
RTVSPost2010PropOp35
 70
     1
102
RTVSPost2010Prop36
280
     0
102
RTVSPost2010PropOp36
 70
     1
102
RTVSPost2010Prop37
 90
       50
102
RTVSPost2010PropOp37
 70
     1
102
RTVSPost2010Prop38
140
0.0
102
RTVSPost2010PropOp38
 70
     1
102
RTVSPost2010Prop39
140
1.0
102
RTVSPost2010PropOp39
 70
     1
102
RTVSPost2010Prop40
 90
        0
102
RTVSPost2010PropOp40
 70
     1
102
RTVSPost2010Prop41ColorIndex
 90
       18
102
RTVSPost2010Prop41ColorRGB
 90
        0
102
RTVSPost2010PropOp41
 70
     1
102
RTVSPost2010Prop42
 90
       50
102
RTVSPost2010PropOp42
 70
     1
102
RTVSPost2010Prop43
 90
        3
102
RTVSPost2010PropOp43
 70
     1
102
RTVSPost2010Prop44ColorIndex
 90
        5
102
RTVSPost2010Prop44ColorRGB
 90
      255
102
RTVSPost2010PropOp44
 70
     1
102
RTVSPost2010Prop45
280
     0
102
RTVSPost2010PropOp45
 70
     1
102
RTVSPost2010Prop46
 90
       50
102
RTVSPost2010PropOp46
 70
     1
102
RTVSPost2010Prop47
 90
       50
102
RTVSPost2010PropOp47
 70
     1
102
RTVSPost2010Prop48
 90
       50
102
RTVSPost2010PropOp48
 70
     1
102
RTVSPost2010Prop49
280
     0
102
RTVSPost2010PropOp49
 70
     1
102
RTVSPost2010Prop50
 90
       50
102
RTVSPost2010PropOp50
 70
     1
102
RTVSPost2010Prop51ColorIndex
 90
      256
102
RTVSPost2010Prop51ColorRGB
 90
-16777216
102
RTVSPost2010PropOp51
 70
     0
102
RTVSPost2010Prop52
140
1.0
102
RTVSPost2010PropOp52
 70
     0
102
RTVSPost2010Prop53
 90
        2
102
RTVSPost2010PropOp53
 70
     1
102
RTVSPost2010Prop54
  1
strokes_ogs.tif
102
RTVSPost2010PropOp54
 70
     1
102
RTVSPost2010Prop55
280
     0
102
RTVSPost2010PropOp55
 70
     1
102
RTVSPost2010Prop56
140
1.0
102
RTVSPost2010PropOp56
 70
     1
102
RTVSPost2010Prop57
140
1.0
102
RTVSPost2010PropOp57
 70
     1
  0
XRECORD
  5
3C6
102
{ACAD_REACTORS
330
3C5
102
}
330
3C5
100
AcDbXrecord
280
     1
102
RTVSPropertyOp0
 70
     1
102
RTVSPropertyOp1
 70
     1
102
RTVSPropertyOp2
 70
     1
102
RTVSPropertyOp3
 70
     1
102
RTVSPropertyOp4
 70
     1
102
RTVSPropertyOp5
 70
     1
102
RTVSPropertyOp6
 70
     1
102
RTVSPropertyOp7
 70
     1
102
RTVSPropertyOp8
 70
     1
102
RTVSPropertyOp9
 70
     1
102
RTVSPropertyOp10
 70
     1
102
RTVSPropertyOp11
 70
     1
102
RTVSPropertyOp12
 70
     1
102
RTVSPropertyOp13
 70
     1
102
RTVSPropertyOp14
 70
     1
102
RTVSPropertyOp15
 70
     1
102
RTVSPropertyOp16
 70
     1
102
RTVSPropertyOp17
 70
     1
102
RTVSPropertyOp18
 70
     1
102
RTVSPropertyOp19
 70
     1
102
RTVSPropertyOp20
 70
     1
102
RTVSPropertyOp21
 70
     1
102
RTVSPropertyOp22
 70
     1
102
RTVSPropertyOp23
 70
     1
102
RTVSPropertyOp24
 70
     1
102
RTVSPropertyOp25
 70
     1
102
RTVSPropertyOp26
 70
     1
102
RTVSPropertyOp27
 70
     1
102
RTVSPropertyOp28
 70
     1
102
RTVSPropertyOp29
 70
     1
102
RTVSPropertyOp30
 70
     1
102
RTVSPropertyOp31
 70
     1
102
RTVSPropertyOp32
 70
     1
102
RTVSPropertyOp33
 70
     1
102
RTVSPropertyOp34
 70
     1
102
RTVSPropertyOp35
 70
     1
102
RTVSPropertyOp36
 70
     1
102
RTVSPropertyOp37
 70
     1
102
RTVSPropertyOp38
 70
     1
102
RTVSPropertyOp39
 70
     1
102
RTVSPropertyOp40
 70
     1
102
RTVSPropertyOp41
 70
     1
102
RTVSPropertyOp42
 70
     1
102
RTVSPropertyOp43
 70
     1
102
RTVSPropertyOp44
 70
     1
102
RTVSPropertyOp45
 70
     1
102
RTVSPropertyOp46
 70
     1
102
RTVSPropertyOp47
 70
     1
102
RTVSPropertyOp48
 70
     1
102
RTVSPropertyOp49
 70
     1
102
RTVSPropertyOp50
 70
     1
102
RTVSPropertyOp51
 70
     0
102
RTVSPropertyOp52
 70
     0
102
RTVSPropertyOp53
 70
     1
102
RTVSPropertyOp54
 70
     1
102
RTVSPropertyOp55
 70
     1
102
RTVSPropertyOp56
 70
     1
102
RTVSPropertyOp57
 70
     1
102
RTVSPost2010Prop28
280
     0
102
RTVSPost2010PropOp28
 70
     1
102
RTVSPost2010Prop29
280
     1
102
RTVSPost2010PropOp29
 70
     1
102
RTVSPost2010Prop30
280
     1
102
RTVSPost2010PropOp30
 70
     1
102
RTVSPost2010Prop31
280
     0
102
RTVSPost2010PropOp31
 70
     1
102
RTVSPost2010Prop32
280
     0
102
RTVSPost2010PropOp32
 70
     1
102
RTVSPost2010Prop33
280
     0
102
RTVSPost2010PropOp33
 70
     1
102
RTVSPost2010Prop34
280
     0
102
RTVSPost2010PropOp34
 70
     1
102
RTVSPost2010Prop35
280
     0
102
RTVSPost2010PropOp35
 70
     1
102
RTVSPost2010Prop36
280
     0
102
RTVSPost2010PropOp36
 70
     1
102
RTVSPost2010Prop37
 90
       50
102
RTVSPost2010PropOp37
 70
     1
102
RTVSPost2010Prop38
140
0.0
102
RTVSPost2010PropOp38
 70
     1
102
RTVSPost2010Prop39
140
1.0
102
RTVSPost2010PropOp39
 70
     1
102
RTVSPost2010Prop40
 90
        0
102
RTVSPost2010PropOp40
 70
     1
102
RTVSPost2010Prop41ColorIndex
 90
       18
102
RTVSPost2010Prop41ColorRGB
 90
        0
102
RTVSPost2010PropOp41
 70
     1
102
RTVSPost2010Prop42
 90
       50
102
RTVSPost2010PropOp42
 70
     1
102
RTVSPost2010Prop43
 90
        3
102
RTVSPost2010PropOp43
 70
     1
102
RTVSPost2010Prop44ColorIndex
 90
        5
102
RTVSPost2010Prop44ColorRGB
 90
      255
102
RTVSPost2010PropOp44
 70
     1
102
RTVSPost2010Prop45
280
     0
102
RTVSPost2010PropOp45
 70
     1
102
RTVSPost2010Prop46
 90
       50
102
RTVSPost2010PropOp46
 70
     1
102
RTVSPost2010Prop47
 90
       50
102
RTVSPost2010PropOp47
 70
     1
102
RTVSPost2010Prop48
 90
       50
102
RTVSPost2010PropOp48
 70
     1
102
RTVSPost2010Prop49
280
     0
102
RTVSPost2010PropOp49
 70
     1
102
RTVSPost2010Prop50
 90
       50
102
RTVSPost2010PropOp50
 70
     1
102
RTVSPost2010Prop51ColorIndex
 90
      256
102
RTVSPost2010Prop51ColorRGB
 90
-16777216
102
RTVSPost2010PropOp51
 70
     0
102
RTVSPost2010Prop52
140
1.0
102
RTVSPost2010PropOp52
 70
     0
102
RTVSPost2010Prop53
 90
        2
102
RTVSPost2010PropOp53
 70
     1
102
RTVSPost2010Prop54
  1
strokes_ogs.tif
102
RTVSPost2010PropOp54
 70
     1
102
RTVSPost2010Prop55
280
     0
102
RTVSPost2010PropOp55
 70
     1
102
RTVSPost2010Prop56
140
1.0
102
RTVSPost2010PropOp56
 70
     1
102
RTVSPost2010Prop57
140
1.0
102
RTVSPost2010PropOp57
 70
     1
  0
XRECORD
  5
3CE
102
{ACAD_REACTORS
330
3CD
102
}
330
3CD
100
AcDbXrecord
280
     1
102
RTVSPropertyOp0
 70
     1
102
RTVSPropertyOp1
 70
     1
102
RTVSPropertyOp2
 70
     1
102
RTVSPropertyOp3
 70
     1
102
RTVSPropertyOp4
 70
     1
102
RTVSPropertyOp5
 70
     1
102
RTVSPropertyOp6
 70
     1
102
RTVSPropertyOp7
 70
     1
102
RTVSPropertyOp8
 70
     1
102
RTVSPropertyOp9
 70
     1
102
RTVSPropertyOp10
 70
     1
102
RTVSPropertyOp11
 70
     1
102
RTVSPropertyOp12
 70
     1
102
RTVSPropertyOp13
 70
     1
102
RTVSPropertyOp14
 70
     1
102
RTVSPropertyOp15
 70
     1
102
RTVSPropertyOp16
 70
     1
102
RTVSPropertyOp17
 70
     1
102
RTVSPropertyOp18
 70
     1
102
RTVSPropertyOp19
 70
     1
102
RTVSPropertyOp20
 70
     1
102
RTVSPropertyOp21
 70
     1
102
RTVSPropertyOp22
 70
     1
102
RTVSPropertyOp23
 70
     1
102
RTVSPropertyOp24
 70
     1
102
RTVSPropertyOp25
 70
     1
102
RTVSPropertyOp26
 70
     1
102
RTVSPropertyOp27
 70
     1
102
RTVSPropertyOp28
 70
     1
102
RTVSPropertyOp29
 70
     1
102
RTVSPropertyOp30
 70
     1
102
RTVSPropertyOp31
 70
     1
102
RTVSPropertyOp32
 70
     1
102
RTVSPropertyOp33
 70
     1
102
RTVSPropertyOp34
 70
     1
102
RTVSPropertyOp35
 70
     1
102
RTVSPropertyOp36
 70
     1
102
RTVSPropertyOp37
 70
     1
102
RTVSPropertyOp38
 70
     1
102
RTVSPropertyOp39
 70
     1
102
RTVSPropertyOp40
 70
     1
102
RTVSPropertyOp41
 70
     1
102
RTVSPropertyOp42
 70
     1
102
RTVSPropertyOp43
 70
     1
102
RTVSPropertyOp44
 70
     1
102
RTVSPropertyOp45
 70
     1
102
RTVSPropertyOp46
 70
     1
102
RTVSPropertyOp47
 70
     1
102
RTVSPropertyOp48
 70
     1
102
RTVSPropertyOp49
 70
     1
102
RTVSPropertyOp50
 70
     1
102
RTVSPropertyOp51
 70
     0
102
RTVSPropertyOp52
 70
     0
102
RTVSPropertyOp53
 70
     1
102
RTVSPropertyOp54
 70
     1
102
RTVSPropertyOp55
 70
     1
102
RTVSPropertyOp56
 70
     1
102
RTVSPropertyOp57
 70
     1
102
RTVSPost2010Prop28
280
     0
102
RTVSPost2010PropOp28
 70
     1
102
RTVSPost2010Prop29
280
     1
102
RTVSPost2010PropOp29
 70
     1
102
RTVSPost2010Prop30
280
     1
102
RTVSPost2010PropOp30
 70
     1
102
RTVSPost2010Prop31
280
     0
102
RTVSPost2010PropOp31
 70
     1
102
RTVSPost2010Prop32
280
     0
102
RTVSPost2010PropOp32
 70
     1
102
RTVSPost2010Prop33
280
     0
102
RTVSPost2010PropOp33
 70
     1
102
RTVSPost2010Prop34
280
     0
102
RTVSPost2010PropOp34
 70
     1
102
RTVSPost2010Prop35
280
     0
102
RTVSPost2010PropOp35
 70
     1
102
RTVSPost2010Prop36
280
     0
102
RTVSPost2010PropOp36
 70
     1
102
RTVSPost2010Prop37
 90
       50
102
RTVSPost2010PropOp37
 70
     1
102
RTVSPost2010Prop38
140
0.0
102
RTVSPost2010PropOp38
 70
     1
102
RTVSPost2010Prop39
140
1.0
102
RTVSPost2010PropOp39
 70
     1
102
RTVSPost2010Prop40
 90
        0
102
RTVSPost2010PropOp40
 70
     1
102
RTVSPost2010Prop41ColorIndex
 90
       18
102
RTVSPost2010Prop41ColorRGB
 90
        0
102
RTVSPost2010PropOp41
 70
     1
102
RTVSPost2010Prop42
 90
       50
102
RTVSPost2010PropOp42
 70
     1
102
RTVSPost2010Prop43
 90
        3
102
RTVSPost2010PropOp43
 70
     1
102
RTVSPost2010Prop44ColorIndex
 90
        5
102
RTVSPost2010Prop44ColorRGB
 90
      255
102
RTVSPost2010PropOp44
 70
     1
102
RTVSPost2010Prop45
280
     0
102
RTVSPost2010PropOp45
 70
     1
102
RTVSPost2010Prop46
 90
       50
102
RTVSPost2010PropOp46
 70
     1
102
RTVSPost2010Prop47
 90
       50
102
RTVSPost2010PropOp47
 70
     1
102
RTVSPost2010Prop48
 90
       50
102
RTVSPost2010PropOp48
 70
     1
102
RTVSPost2010Prop49
280
     0
102
RTVSPost2010PropOp49
 70
     1
102
RTVSPost2010Prop50
 90
       50
102
RTVSPost2010PropOp50
 70
     1
102
RTVSPost2010Prop51ColorIndex
 90
      256
102
RTVSPost2010Prop51ColorRGB
 90
-16777216
102
RTVSPost2010PropOp51
 70
     0
102
RTVSPost2010Prop52
140
1.0
102
RTVSPost2010PropOp52
 70
     0
102
RTVSPost2010Prop53
 90
        2
102
RTVSPost2010PropOp53
 70
     1
102
RTVSPost2010Prop54
  1
strokes_ogs.tif
102
RTVSPost2010PropOp54
 70
     1
102
RTVSPost2010Prop55
280
     0
102
RTVSPost2010PropOp55
 70
     1
102
RTVSPost2010Prop56
140
1.0
102
RTVSPost2010PropOp56
 70
     1
102
RTVSPost2010Prop57
140
1.0
102
RTVSPost2010PropOp57
 70
     1
  0
XRECORD
  5
3C2
102
{ACAD_REACTORS
330
3C1
102
}
330
3C1
100
AcDbXrecord
280
     1
102
RTVSPropertyOp0
 70
     1
102
RTVSPropertyOp1
 70
     1
102
RTVSPropertyOp2
 70
     1
102
RTVSPropertyOp3
 70
     1
102
RTVSPropertyOp4
 70
     1
102
RTVSPropertyOp5
 70
     1
102
RTVSPropertyOp6
 70
     1
102
RTVSPropertyOp7
 70
     1
102
RTVSPropertyOp8
 70
     1
102
RTVSPropertyOp9
 70
     1
102
RTVSPropertyOp10
 70
     1
102
RTVSPropertyOp11
 70
     1
102
RTVSPropertyOp12
 70
     1
102
RTVSPropertyOp13
 70
     1
102
RTVSPropertyOp14
 70
     1
102
RTVSPropertyOp15
 70
     1
102
RTVSPropertyOp16
 70
     1
102
RTVSPropertyOp17
 70
     1
102
RTVSPropertyOp18
 70
     1
102
RTVSPropertyOp19
 70
     1
102
RTVSPropertyOp20
 70
     1
102
RTVSPropertyOp21
 70
     1
102
RTVSPropertyOp22
 70
     1
102
RTVSPropertyOp23
 70
     1
102
RTVSPropertyOp24
 70
     1
102
RTVSPropertyOp25
 70
     1
102
RTVSPropertyOp26
 70
     1
102
RTVSPropertyOp27
 70
     1
102
RTVSPropertyOp28
 70
     1
102
RTVSPropertyOp29
 70
     1
102
RTVSPropertyOp30
 70
     1
102
RTVSPropertyOp31
 70
     1
102
RTVSPropertyOp32
 70
     1
102
RTVSPropertyOp33
 70
     1
102
RTVSPropertyOp34
 70
     1
102
RTVSPropertyOp35
 70
     1
102
RTVSPropertyOp36
 70
     1
102
RTVSPropertyOp37
 70
     1
102
RTVSPropertyOp38
 70
     1
102
RTVSPropertyOp39
 70
     1
102
RTVSPropertyOp40
 70
     1
102
RTVSPropertyOp41
 70
     1
102
RTVSPropertyOp42
 70
     1
102
RTVSPropertyOp43
 70
     1
102
RTVSPropertyOp44
 70
     1
102
RTVSPropertyOp45
 70
     1
102
RTVSPropertyOp46
 70
     1
102
RTVSPropertyOp47
 70
     1
102
RTVSPropertyOp48
 70
     1
102
RTVSPropertyOp49
 70
     1
102
RTVSPropertyOp50
 70
     1
102
RTVSPropertyOp51
 70
     0
102
RTVSPropertyOp52
 70
     0
102
RTVSPropertyOp53
 70
     1
102
RTVSPropertyOp54
 70
     1
102
RTVSPropertyOp55
 70
     1
102
RTVSPropertyOp56
 70
     1
102
RTVSPropertyOp57
 70
     1
102
RTVSPost2010Prop28
280
     0
102
RTVSPost2010PropOp28
 70
     1
102
RTVSPost2010Prop29
280
     1
102
RTVSPost2010PropOp29
 70
     1
102
RTVSPost2010Prop30
280
     1
102
RTVSPost2010PropOp30
 70
     1
102
RTVSPost2010Prop31
280
     0
102
RTVSPost2010PropOp31
 70
     1
102
RTVSPost2010Prop32
280
     0
102
RTVSPost2010PropOp32
 70
     1
102
RTVSPost2010Prop33
280
     0
102
RTVSPost2010PropOp33
 70
     1
102
RTVSPost2010Prop34
280
     0
102
RTVSPost2010PropOp34
 70
     1
102
RTVSPost2010Prop35
280
     0
102
RTVSPost2010PropOp35
 70
     1
102
RTVSPost2010Prop36
280
     0
102
RTVSPost2010PropOp36
 70
     1
102
RTVSPost2010Prop37
 90
       50
102
RTVSPost2010PropOp37
 70
     1
102
RTVSPost2010Prop38
140
0.0
102
RTVSPost2010PropOp38
 70
     1
102
RTVSPost2010Prop39
140
1.0
102
RTVSPost2010PropOp39
 70
     1
102
RTVSPost2010Prop40
 90
        0
102
RTVSPost2010PropOp40
 70
     1
102
RTVSPost2010Prop41ColorIndex
 90
       18
102
RTVSPost2010Prop41ColorRGB
 90
        0
102
RTVSPost2010PropOp41
 70
     1
102
RTVSPost2010Prop42
 90
       50
102
RTVSPost2010PropOp42
 70
     1
102
RTVSPost2010Prop43
 90
        3
102
RTVSPost2010PropOp43
 70
     1
102
RTVSPost2010Prop44ColorIndex
 90
        5
102
RTVSPost2010Prop44ColorRGB
 90
      255
102
RTVSPost2010PropOp44
 70
     1
102
RTVSPost2010Prop45
280
     0
102
RTVSPost2010PropOp45
 70
     1
102
RTVSPost2010Prop46
 90
       50
102
RTVSPost2010PropOp46
 70
     1
102
RTVSPost2010Prop47
 90
       50
102
RTVSPost2010PropOp47
 70
     1
102
RTVSPost2010Prop48
 90
       50
102
RTVSPost2010PropOp48
 70
     1
102
RTVSPost2010Prop49
280
     0
102
RTVSPost2010PropOp49
 70
     1
102
RTVSPost2010Prop50
 90
       50
102
RTVSPost2010PropOp50
 70
     1
102
RTVSPost2010Prop51ColorIndex
 90
      256
102
RTVSPost2010Prop51ColorRGB
 90
-16777216
102
RTVSPost2010PropOp51
 70
     0
102
RTVSPost2010Prop52
140
1.0
102
RTVSPost2010PropOp52
 70
     0
102
RTVSPost2010Prop53
 90
        2
102
RTVSPost2010PropOp53
 70
     1
102
RTVSPost2010Prop54
  1
strokes_ogs.tif
102
RTVSPost2010PropOp54
 70
     1
102
RTVSPost2010Prop55
280
     0
102
RTVSPost2010PropOp55
 70
     1
102
RTVSPost2010Prop56
140
1.0
102
RTVSPost2010PropOp56
 70
     1
102
RTVSPost2010Prop57
140
1.0
102
RTVSPost2010PropOp57
 70
     1
  0
XRECORD
  5
3C4
102
{ACAD_REACTORS
330
3C3
102
}
330
3C3
100
AcDbXrecord
280
     1
102
RTVSPropertyOp0
 70
     1
102
RTVSPropertyOp1
 70
     1
102
RTVSPropertyOp2
 70
     1
102
RTVSPropertyOp3
 70
     1
102
RTVSPropertyOp4
 70
     1
102
RTVSPropertyOp5
 70
     1
102
RTVSPropertyOp6
 70
     1
102
RTVSPropertyOp7
 70
     1
102
RTVSPropertyOp8
 70
     1
102
RTVSPropertyOp9
 70
     1
102
RTVSPropertyOp10
 70
     1
102
RTVSPropertyOp11
 70
     1
102
RTVSPropertyOp12
 70
     1
102
RTVSPropertyOp13
 70
     1
102
RTVSPropertyOp14
 70
     1
102
RTVSPropertyOp15
 70
     1
102
RTVSPropertyOp16
 70
     1
102
RTVSPropertyOp17
 70
     1
102
RTVSPropertyOp18
 70
     1
102
RTVSPropertyOp19
 70
     1
102
RTVSPropertyOp20
 70
     1
102
RTVSPropertyOp21
 70
     1
102
RTVSPropertyOp22
 70
     1
102
RTVSPropertyOp23
 70
     1
102
RTVSPropertyOp24
 70
     1
102
RTVSPropertyOp25
 70
     1
102
RTVSPropertyOp26
 70
     1
102
RTVSPropertyOp27
 70
     1
102
RTVSPropertyOp28
 70
     1
102
RTVSPropertyOp29
 70
     1
102
RTVSPropertyOp30
 70
     1
102
RTVSPropertyOp31
 70
     1
102
RTVSPropertyOp32
 70
     1
102
RTVSPropertyOp33
 70
     1
102
RTVSPropertyOp34
 70
     1
102
RTVSPropertyOp35
 70
     1
102
RTVSPropertyOp36
 70
     1
102
RTVSPropertyOp37
 70
     1
102
RTVSPropertyOp38
 70
     1
102
RTVSPropertyOp39
 70
     1
102
RTVSPropertyOp40
 70
     1
102
RTVSPropertyOp41
 70
     1
102
RTVSPropertyOp42
 70
     1
102
RTVSPropertyOp43
 70
     1
102
RTVSPropertyOp44
 70
     1
102
RTVSPropertyOp45
 70
     1
102
RTVSPropertyOp46
 70
     1
102
RTVSPropertyOp47
 70
     1
102
RTVSPropertyOp48
 70
     1
102
RTVSPropertyOp49
 70
     1
102
RTVSPropertyOp50
 70
     1
102
RTVSPropertyOp51
 70
     0
102
RTVSPropertyOp52
 70
     0
102
RTVSPropertyOp53
 70
     1
102
RTVSPropertyOp54
 70
     1
102
RTVSPropertyOp55
 70
     1
102
RTVSPropertyOp56
 70
     1
102
RTVSPropertyOp57
 70
     1
102
RTVSPost2010Prop28
280
     0
102
RTVSPost2010PropOp28
 70
     1
102
RTVSPost2010Prop29
280
     1
102
RTVSPost2010PropOp29
 70
     1
102
RTVSPost2010Prop30
280
     1
102
RTVSPost2010PropOp30
 70
     1
102
RTVSPost2010Prop31
280
     0
102
RTVSPost2010PropOp31
 70
     1
102
RTVSPost2010Prop32
280
     0
102
RTVSPost2010PropOp32
 70
     1
102
RTVSPost2010Prop33
280
     0
102
RTVSPost2010PropOp33
 70
     1
102
RTVSPost2010Prop34
280
     0
102
RTVSPost2010PropOp34
 70
     1
102
RTVSPost2010Prop35
280
     0
102
RTVSPost2010PropOp35
 70
     1
102
RTVSPost2010Prop36
280
     0
102
RTVSPost2010PropOp36
 70
     1
102
RTVSPost2010Prop37
 90
       50
102
RTVSPost2010PropOp37
 70
     1
102
RTVSPost2010Prop38
140
0.0
102
RTVSPost2010PropOp38
 70
     1
102
RTVSPost2010Prop39
140
1.0
102
RTVSPost2010PropOp39
 70
     1
102
RTVSPost2010Prop40
 90
        0
102
RTVSPost2010PropOp40
 70
     1
102
RTVSPost2010Prop41ColorIndex
 90
       18
102
RTVSPost2010Prop41ColorRGB
 90
        0
102
RTVSPost2010PropOp41
 70
     1
102
RTVSPost2010Prop42
 90
       50
102
RTVSPost2010PropOp42
 70
     1
102
RTVSPost2010Prop43
 90
        3
102
RTVSPost2010PropOp43
 70
     1
102
RTVSPost2010Prop44ColorIndex
 90
        5
102
RTVSPost2010Prop44ColorRGB
 90
      255
102
RTVSPost2010PropOp44
 70
     1
102
RTVSPost2010Prop45
280
     0
102
RTVSPost2010PropOp45
 70
     1
102
RTVSPost2010Prop46
 90
       50
102
RTVSPost2010PropOp46
 70
     1
102
RTVSPost2010Prop47
 90
       50
102
RTVSPost2010PropOp47
 70
     1
102
RTVSPost2010Prop48
 90
       50
102
RTVSPost2010PropOp48
 70
     1
102
RTVSPost2010Prop49
280
     0
102
RTVSPost2010PropOp49
 70
     1
102
RTVSPost2010Prop50
 90
       50
102
RTVSPost2010PropOp50
 70
     1
102
RTVSPost2010Prop51ColorIndex
 90
      256
102
RTVSPost2010Prop51ColorRGB
 90
-16777216
102
RTVSPost2010PropOp51
 70
     0
102
RTVSPost2010Prop52
140
1.0
102
RTVSPost2010PropOp52
 70
     0
102
RTVSPost2010Prop53
 90
        2
102
RTVSPost2010PropOp53
 70
     1
102
RTVSPost2010Prop54
  1
strokes_ogs.tif
102
RTVSPost2010PropOp54
 70
     1
102
RTVSPost2010Prop55
280
     0
102
RTVSPost2010PropOp55
 70
     1
102
RTVSPost2010Prop56
140
1.0
102
RTVSPost2010PropOp56
 70
     1
102
RTVSPost2010Prop57
140
1.0
102
RTVSPost2010PropOp57
 70
     1
  0
XRECORD
  5
3D4
102
{ACAD_REACTORS
330
3D3
102
}
330
3D3
100
AcDbXrecord
280
     1
102
RTVSPropertyOp0
 70
     0
102
RTVSPropertyOp1
 70
     0
102
RTVSPropertyOp2
 70
     0
102
RTVSPropertyOp3
 70
     0
102
RTVSPropertyOp4
 70
     0
102
RTVSPropertyOp5
 70
     0
102
RTVSPropertyOp6
 70
     0
102
RTVSPropertyOp7
 70
     0
102
RTVSPropertyOp8
 70
     0
102
RTVSPropertyOp9
 70
     0
102
RTVSPropertyOp10
 70
     0
102
RTVSPropertyOp11
 70
     0
102
RTVSPropertyOp12
 70
     0
102
RTVSPropertyOp13
 70
     0
102
RTVSPropertyOp14
 70
     2
102
RTVSPropertyOp15
 70
     0
102
RTVSPropertyOp16
 70
     0
102
RTVSPropertyOp17
 70
     0
102
RTVSPropertyOp18
 70
     0
102
RTVSPropertyOp19
 70
     0
102
RTVSPropertyOp20
 70
     0
102
RTVSPropertyOp21
 70
     0
102
RTVSPropertyOp22
 70
     0
102
RTVSPropertyOp23
 70
     0
102
RTVSPropertyOp24
 70
     0
102
RTVSPropertyOp25
 70
     0
102
RTVSPropertyOp26
 70
     0
102
RTVSPropertyOp27
 70
     0
102
RTVSPropertyOp28
 70
     0
102
RTVSPropertyOp29
 70
     0
102
RTVSPropertyOp30
 70
     0
102
RTVSPropertyOp31
 70
     0
102
RTVSPropertyOp32
 70
     0
102
RTVSPropertyOp33
 70
     0
102
RTVSPropertyOp34
 70
     0
102
RTVSPropertyOp35
 70
     0
102
RTVSPropertyOp36
 70
     0
102
RTVSPropertyOp37
 70
     0
102
RTVSPropertyOp38
 70
     0
102
RTVSPropertyOp39
 70
     0
102
RTVSPropertyOp40
 70
     0
102
RTVSPropertyOp41
 70
     0
102
RTVSPropertyOp42
 70
     0
102
RTVSPropertyOp43
 70
     0
102
RTVSPropertyOp44
 70
     0
102
RTVSPropertyOp45
 70
     0
102
RTVSPropertyOp46
 70
     0
102
RTVSPropertyOp47
 70
     0
102
RTVSPropertyOp48
 70
     0
102
RTVSPropertyOp49
 70
     0
102
RTVSPropertyOp50
 70
     0
102
RTVSPropertyOp51
 70
     0
102
RTVSPropertyOp52
 70
     0
102
RTVSPropertyOp53
 70
     0
102
RTVSPropertyOp54
 70
     0
102
RTVSPropertyOp55
 70
     0
102
RTVSPropertyOp56
 70
     0
102
RTVSPropertyOp57
 70
     0
102
RTVSPost2010Prop28
280
     0
102
RTVSPost2010PropOp28
 70
     0
102
RTVSPost2010Prop29
280
     1
102
RTVSPost2010PropOp29
 70
     0
102
RTVSPost2010Prop30
280
     1
102
RTVSPost2010PropOp30
 70
     0
102
RTVSPost2010Prop31
280
     0
102
RTVSPost2010PropOp31
 70
     0
102
RTVSPost2010Prop32
280
     0
102
RTVSPost2010PropOp32
 70
     0
102
RTVSPost2010Prop33
280
     0
102
RTVSPost2010PropOp33
 70
     0
102
RTVSPost2010Prop34
280
     0
102
RTVSPost2010PropOp34
 70
     0
102
RTVSPost2010Prop35
280
     0
102
RTVSPost2010PropOp35
 70
     0
102
RTVSPost2010Prop36
280
     0
102
RTVSPost2010PropOp36
 70
     0
102
RTVSPost2010Prop37
 90
       50
102
RTVSPost2010PropOp37
 70
     0
102
RTVSPost2010Prop38
140
0.0
102
RTVSPost2010PropOp38
 70
     0
102
RTVSPost2010Prop39
140
1.0
102
RTVSPost2010PropOp39
 70
     0
102
RTVSPost2010Prop40
 90
        0
102
RTVSPost2010PropOp40
 70
     0
102
RTVSPost2010Prop41ColorIndex
 90
       18
102
RTVSPost2010Prop41ColorRGB
 90
        0
102
RTVSPost2010PropOp41
 70
     0
102
RTVSPost2010Prop42
 90
       50
102
RTVSPost2010PropOp42
 70
     0
102
RTVSPost2010Prop43
 90
        3
102
RTVSPost2010PropOp43
 70
     0
102
RTVSPost2010Prop44ColorIndex
 90
        5
102
RTVSPost2010Prop44ColorRGB
 90
      255
102
RTVSPost2010PropOp44
 70
     0
102
RTVSPost2010Prop45
280
     0
102
RTVSPost2010PropOp45
 70
     0
102
RTVSPost2010Prop46
 90
       50
102
RTVSPost2010PropOp46
 70
     0
102
RTVSPost2010Prop47
 90
       50
102
RTVSPost2010PropOp47
 70
     0
102
RTVSPost2010Prop48
 90
       50
102
RTVSPost2010PropOp48
 70
     0
102
RTVSPost2010Prop49
280
     0
102
RTVSPost2010PropOp49
 70
     0
102
RTVSPost2010Prop50
 90
       50
102
RTVSPost2010PropOp50
 70
     0
102
RTVSPost2010Prop51ColorIndex
 90
      256
102
RTVSPost2010Prop51ColorRGB
 90
-16777216
102
RTVSPost2010PropOp51
 70
     0
102
RTVSPost2010Prop52
140
1.0
102
RTVSPost2010PropOp52
 70
     0
102
RTVSPost2010Prop53
 90
        2
102
RTVSPost2010PropOp53
 70
     0
102
RTVSPost2010Prop54
  1
strokes_ogs.tif
102
RTVSPost2010PropOp54
 70
     0
102
RTVSPost2010Prop55
280
     0
102
RTVSPost2010PropOp55
 70
     0
102
RTVSPost2010Prop56
140
1.0
102
RTVSPost2010PropOp56
 70
     0
102
RTVSPost2010Prop57
140
1.0
102
RTVSPost2010PropOp57
 70
     0
  0
XRECORD
  5
3CC
102
{ACAD_REACTORS
330
3CB
102
}
330
3CB
100
AcDbXrecord
280
     1
102
RTVSPropertyOp0
 70
     1
102
RTVSPropertyOp1
 70
     1
102
RTVSPropertyOp2
 70
     1
102
RTVSPropertyOp3
 70
     1
102
RTVSPropertyOp4
 70
     1
102
RTVSPropertyOp5
 70
     1
102
RTVSPropertyOp6
 70
     1
102
RTVSPropertyOp7
 70
     1
102
RTVSPropertyOp8
 70
     1
102
RTVSPropertyOp9
 70
     1
102
RTVSPropertyOp10
 70
     1
102
RTVSPropertyOp11
 70
     1
102
RTVSPropertyOp12
 70
     1
102
RTVSPropertyOp13
 70
     1
102
RTVSPropertyOp14
 70
     1
102
RTVSPropertyOp15
 70
     1
102
RTVSPropertyOp16
 70
     1
102
RTVSPropertyOp17
 70
     1
102
RTVSPropertyOp18
 70
     1
102
RTVSPropertyOp19
 70
     1
102
RTVSPropertyOp20
 70
     1
102
RTVSPropertyOp21
 70
     1
102
RTVSPropertyOp22
 70
     1
102
RTVSPropertyOp23
 70
     1
102
RTVSPropertyOp24
 70
     1
102
RTVSPropertyOp25
 70
     1
102
RTVSPropertyOp26
 70
     1
102
RTVSPropertyOp27
 70
     1
102
RTVSPropertyOp28
 70
     1
102
RTVSPropertyOp29
 70
     1
102
RTVSPropertyOp30
 70
     1
102
RTVSPropertyOp31
 70
     1
102
RTVSPropertyOp32
 70
     1
102
RTVSPropertyOp33
 70
     1
102
RTVSPropertyOp34
 70
     1
102
RTVSPropertyOp35
 70
     1
102
RTVSPropertyOp36
 70
     1
102
RTVSPropertyOp37
 70
     1
102
RTVSPropertyOp38
 70
     1
102
RTVSPropertyOp39
 70
     1
102
RTVSPropertyOp40
 70
     1
102
RTVSPropertyOp41
 70
     1
102
RTVSPropertyOp42
 70
     1
102
RTVSPropertyOp43
 70
     1
102
RTVSPropertyOp44
 70
     1
102
RTVSPropertyOp45
 70
     1
102
RTVSPropertyOp46
 70
     1
102
RTVSPropertyOp47
 70
     1
102
RTVSPropertyOp48
 70
     1
102
RTVSPropertyOp49
 70
     1
102
RTVSPropertyOp50
 70
     1
102
RTVSPropertyOp51
 70
     0
102
RTVSPropertyOp52
 70
     0
102
RTVSPropertyOp53
 70
     1
102
RTVSPropertyOp54
 70
     1
102
RTVSPropertyOp55
 70
     1
102
RTVSPropertyOp56
 70
     1
102
RTVSPropertyOp57
 70
     1
102
RTVSPost2010Prop28
280
     0
102
RTVSPost2010PropOp28
 70
     1
102
RTVSPost2010Prop29
280
     1
102
RTVSPost2010PropOp29
 70
     1
102
RTVSPost2010Prop30
280
     1
102
RTVSPost2010PropOp30
 70
     1
102
RTVSPost2010Prop31
280
     0
102
RTVSPost2010PropOp31
 70
     1
102
RTVSPost2010Prop32
280
     0
102
RTVSPost2010PropOp32
 70
     1
102
RTVSPost2010Prop33
280
     0
102
RTVSPost2010PropOp33
 70
     1
102
RTVSPost2010Prop34
280
     0
102
RTVSPost2010PropOp34
 70
     1
102
RTVSPost2010Prop35
280
     0
102
RTVSPost2010PropOp35
 70
     1
102
RTVSPost2010Prop36
280
     0
102
RTVSPost2010PropOp36
 70
     1
102
RTVSPost2010Prop37
 90
       50
102
RTVSPost2010PropOp37
 70
     1
102
RTVSPost2010Prop38
140
0.0
102
RTVSPost2010PropOp38
 70
     1
102
RTVSPost2010Prop39
140
1.0
102
RTVSPost2010PropOp39
 70
     1
102
RTVSPost2010Prop40
 90
        0
102
RTVSPost2010PropOp40
 70
     1
102
RTVSPost2010Prop41ColorIndex
 90
       18
102
RTVSPost2010Prop41ColorRGB
 90
        0
102
RTVSPost2010PropOp41
 70
     1
102
RTVSPost2010Prop42
 90
       50
102
RTVSPost2010PropOp42
 70
     1
102
RTVSPost2010Prop43
 90
        3
102
RTVSPost2010PropOp43
 70
     1
102
RTVSPost2010Prop44ColorIndex
 90
        5
102
RTVSPost2010Prop44ColorRGB
 90
      255
102
RTVSPost2010PropOp44
 70
     1
102
RTVSPost2010Prop45
280
     0
102
RTVSPost2010PropOp45
 70
     1
102
RTVSPost2010Prop46
 90
       50
102
RTVSPost2010PropOp46
 70
     1
102
RTVSPost2010Prop47
 90
       50
102
RTVSPost2010PropOp47
 70
     1
102
RTVSPost2010Prop48
 90
       50
102
RTVSPost2010PropOp48
 70
     1
102
RTVSPost2010Prop49
280
     0
102
RTVSPost2010PropOp49
 70
     1
102
RTVSPost2010Prop50
 90
       50
102
RTVSPost2010PropOp50
 70
     1
102
RTVSPost2010Prop51ColorIndex
 90
      256
102
RTVSPost2010Prop51ColorRGB
 90
-16777216
102
RTVSPost2010PropOp51
 70
     0
102
RTVSPost2010Prop52
140
1.0
102
RTVSPost2010PropOp52
 70
     0
102
RTVSPost2010Prop53
 90
        2
102
RTVSPost2010PropOp53
 70
     1
102
RTVSPost2010Prop54
  1
strokes_ogs.tif
102
RTVSPost2010PropOp54
 70
     1
102
RTVSPost2010Prop55
280
     0
102
RTVSPost2010PropOp55
 70
     1
102
RTVSPost2010Prop56
140
1.0
102
RTVSPost2010PropOp56
 70
     1
102
RTVSPost2010Prop57
140
1.0
102
RTVSPost2010PropOp57
 70
     1
  0
XRECORD
  5
3B0
102
{ACAD_REACTORS
330
3AF
102
}
330
3AF
100
AcDbXrecord
280
     1
102
RTVSPropertyOp0
 70
     1
102
RTVSPropertyOp1
 70
     1
102
RTVSPropertyOp2
 70
     1
102
RTVSPropertyOp3
 70
     1
102
RTVSPropertyOp4
 70
     1
102
RTVSPropertyOp5
 70
     1
102
RTVSPropertyOp6
 70
     1
102
RTVSPropertyOp7
 70
     1
102
RTVSPropertyOp8
 70
     1
102
RTVSPropertyOp9
 70
     1
102
RTVSPropertyOp10
 70
     1
102
RTVSPropertyOp11
 70
     1
102
RTVSPropertyOp12
 70
     1
102
RTVSPropertyOp13
 70
     1
102
RTVSPropertyOp14
 70
     1
102
RTVSPropertyOp15
 70
     1
102
RTVSPropertyOp16
 70
     1
102
RTVSPropertyOp17
 70
     1
102
RTVSPropertyOp18
 70
     1
102
RTVSPropertyOp19
 70
     1
102
RTVSPropertyOp20
 70
     1
102
RTVSPropertyOp21
 70
     1
102
RTVSPropertyOp22
 70
     1
102
RTVSPropertyOp23
 70
     1
102
RTVSPropertyOp24
 70
     1
102
RTVSPropertyOp25
 70
     1
102
RTVSPropertyOp26
 70
     1
102
RTVSPropertyOp27
 70
     1
102
RTVSPropertyOp28
 70
     1
102
RTVSPropertyOp29
 70
     1
102
RTVSPropertyOp30
 70
     1
102
RTVSPropertyOp31
 70
     1
102
RTVSPropertyOp32
 70
     1
102
RTVSPropertyOp33
 70
     1
102
RTVSPropertyOp34
 70
     1
102
RTVSPropertyOp35
 70
     1
102
RTVSPropertyOp36
 70
     1
102
RTVSPropertyOp37
 70
     1
102
RTVSPropertyOp38
 70
     1
102
RTVSPropertyOp39
 70
     1
102
RTVSPropertyOp40
 70
     1
102
RTVSPropertyOp41
 70
     1
102
RTVSPropertyOp42
 70
     1
102
RTVSPropertyOp43
 70
     1
102
RTVSPropertyOp44
 70
     1
102
RTVSPropertyOp45
 70
     1
102
RTVSPropertyOp46
 70
     1
102
RTVSPropertyOp47
 70
     1
102
RTVSPropertyOp48
 70
     1
102
RTVSPropertyOp49
 70
     1
102
RTVSPropertyOp50
 70
     1
102
RTVSPropertyOp51
 70
     0
102
RTVSPropertyOp52
 70
     0
102
RTVSPropertyOp53
 70
     1
102
RTVSPropertyOp54
 70
     1
102
RTVSPropertyOp55
 70
     1
102
RTVSPropertyOp56
 70
     1
102
RTVSPropertyOp57
 70
     1
102
RTVSPost2010Prop28
280
     0
102
RTVSPost2010PropOp28
 70
     1
102
RTVSPost2010Prop29
280
     1
102
RTVSPost2010PropOp29
 70
     1
102
RTVSPost2010Prop30
280
     1
102
RTVSPost2010PropOp30
 70
     1
102
RTVSPost2010Prop31
280
     0
102
RTVSPost2010PropOp31
 70
     1
102
RTVSPost2010Prop32
280
     0
102
RTVSPost2010PropOp32
 70
     1
102
RTVSPost2010Prop33
280
     0
102
RTVSPost2010PropOp33
 70
     1
102
RTVSPost2010Prop34
280
     0
102
RTVSPost2010PropOp34
 70
     1
102
RTVSPost2010Prop35
280
     0
102
RTVSPost2010PropOp35
 70
     1
102
RTVSPost2010Prop36
280
     0
102
RTVSPost2010PropOp36
 70
     1
102
RTVSPost2010Prop37
 90
       50
102
RTVSPost2010PropOp37
 70
     1
102
RTVSPost2010Prop38
140
0.0
102
RTVSPost2010PropOp38
 70
     1
102
RTVSPost2010Prop39
140
1.0
102
RTVSPost2010PropOp39
 70
     1
102
RTVSPost2010Prop40
 90
        0
102
RTVSPost2010PropOp40
 70
     1
102
RTVSPost2010Prop41ColorIndex
 90
       18
102
RTVSPost2010Prop41ColorRGB
 90
        0
102
RTVSPost2010PropOp41
 70
     1
102
RTVSPost2010Prop42
 90
       50
102
RTVSPost2010PropOp42
 70
     1
102
RTVSPost2010Prop43
 90
        3
102
RTVSPost2010PropOp43
 70
     1
102
RTVSPost2010Prop44ColorIndex
 90
        5
102
RTVSPost2010Prop44ColorRGB
 90
      255
102
RTVSPost2010PropOp44
 70
     1
102
RTVSPost2010Prop45
280
     0
102
RTVSPost2010PropOp45
 70
     1
102
RTVSPost2010Prop46
 90
       50
102
RTVSPost2010PropOp46
 70
     1
102
RTVSPost2010Prop47
 90
       50
102
RTVSPost2010PropOp47
 70
     1
102
RTVSPost2010Prop48
 90
       50
102
RTVSPost2010PropOp48
 70
     1
102
RTVSPost2010Prop49
280
     0
102
RTVSPost2010PropOp49
 70
     1
102
RTVSPost2010Prop50
 90
       50
102
RTVSPost2010PropOp50
 70
     1
102
RTVSPost2010Prop51ColorIndex
 90
      256
102
RTVSPost2010Prop51ColorRGB
 90
-16777216
102
RTVSPost2010PropOp51
 70
     0
102
RTVSPost2010Prop52
140
1.0
102
RTVSPost2010PropOp52
 70
     0
102
RTVSPost2010Prop53
 90
        2
102
RTVSPost2010PropOp53
 70
     1
102
RTVSPost2010Prop54
  1
strokes_ogs.tif
102
RTVSPost2010PropOp54
 70
     1
102
RTVSPost2010Prop55
280
     0
102
RTVSPost2010PropOp55
 70
     1
102
RTVSPost2010Prop56
140
1.0
102
RTVSPost2010PropOp56
 70
     1
102
RTVSPost2010Prop57
140
1.0
102
RTVSPost2010PropOp57
 70
     1
  0
XRECORD
  5
3B2
102
{ACAD_REACTORS
330
3B1
102
}
330
3B1
100
AcDbXrecord
280
     1
102
RTVSPropertyOp0
 70
     1
102
RTVSPropertyOp1
 70
     1
102
RTVSPropertyOp2
 70
     1
102
RTVSPropertyOp3
 70
     1
102
RTVSPropertyOp4
 70
     1
102
RTVSPropertyOp5
 70
     1
102
RTVSPropertyOp6
 70
     1
102
RTVSPropertyOp7
 70
     1
102
RTVSPropertyOp8
 70
     1
102
RTVSPropertyOp9
 70
     1
102
RTVSPropertyOp10
 70
     1
102
RTVSPropertyOp11
 70
     1
102
RTVSPropertyOp12
 70
     1
102
RTVSPropertyOp13
 70
     1
102
RTVSPropertyOp14
 70
     1
102
RTVSPropertyOp15
 70
     1
102
RTVSPropertyOp16
 70
     1
102
RTVSPropertyOp17
 70
     1
102
RTVSPropertyOp18
 70
     1
102
RTVSPropertyOp19
 70
     1
102
RTVSPropertyOp20
 70
     1
102
RTVSPropertyOp21
 70
     1
102
RTVSPropertyOp22
 70
     1
102
RTVSPropertyOp23
 70
     1
102
RTVSPropertyOp24
 70
     1
102
RTVSPropertyOp25
 70
     1
102
RTVSPropertyOp26
 70
     1
102
RTVSPropertyOp27
 70
     1
102
RTVSPropertyOp28
 70
     1
102
RTVSPropertyOp29
 70
     1
102
RTVSPropertyOp30
 70
     1
102
RTVSPropertyOp31
 70
     1
102
RTVSPropertyOp32
 70
     1
102
RTVSPropertyOp33
 70
     1
102
RTVSPropertyOp34
 70
     1
102
RTVSPropertyOp35
 70
     1
102
RTVSPropertyOp36
 70
     1
102
RTVSPropertyOp37
 70
     1
102
RTVSPropertyOp38
 70
     1
102
RTVSPropertyOp39
 70
     1
102
RTVSPropertyOp40
 70
     1
102
RTVSPropertyOp41
 70
     1
102
RTVSPropertyOp42
 70
     1
102
RTVSPropertyOp43
 70
     1
102
RTVSPropertyOp44
 70
     1
102
RTVSPropertyOp45
 70
     1
102
RTVSPropertyOp46
 70
     1
102
RTVSPropertyOp47
 70
     1
102
RTVSPropertyOp48
 70
     1
102
RTVSPropertyOp49
 70
     1
102
RTVSPropertyOp50
 70
     1
102
RTVSPropertyOp51
 70
     0
102
RTVSPropertyOp52
 70
     0
102
RTVSPropertyOp53
 70
     1
102
RTVSPropertyOp54
 70
     1
102
RTVSPropertyOp55
 70
     1
102
RTVSPropertyOp56
 70
     1
102
RTVSPropertyOp57
 70
     1
102
RTVSPost2010Prop28
280
     0
102
RTVSPost2010PropOp28
 70
     1
102
RTVSPost2010Prop29
280
     1
102
RTVSPost2010PropOp29
 70
     1
102
RTVSPost2010Prop30
280
     1
102
RTVSPost2010PropOp30
 70
     1
102
RTVSPost2010Prop31
280
     0
102
RTVSPost2010PropOp31
 70
     1
102
RTVSPost2010Prop32
280
     0
102
RTVSPost2010PropOp32
 70
     1
102
RTVSPost2010Prop33
280
     0
102
RTVSPost2010PropOp33
 70
     1
102
RTVSPost2010Prop34
280
     0
102
RTVSPost2010PropOp34
 70
     1
102
RTVSPost2010Prop35
280
     0
102
RTVSPost2010PropOp35
 70
     1
102
RTVSPost2010Prop36
280
     0
102
RTVSPost2010PropOp36
 70
     1
102
RTVSPost2010Prop37
 90
       50
102
RTVSPost2010PropOp37
 70
     1
102
RTVSPost2010Prop38
140
0.0
102
RTVSPost2010PropOp38
 70
     1
102
RTVSPost2010Prop39
140
1.0
102
RTVSPost2010PropOp39
 70
     1
102
RTVSPost2010Prop40
 90
        0
102
RTVSPost2010PropOp40
 70
     1
102
RTVSPost2010Prop41ColorIndex
 90
       18
102
RTVSPost2010Prop41ColorRGB
 90
        0
102
RTVSPost2010PropOp41
 70
     1
102
RTVSPost2010Prop42
 90
       50
102
RTVSPost2010PropOp42
 70
     1
102
RTVSPost2010Prop43
 90
        3
102
RTVSPost2010PropOp43
 70
     1
102
RTVSPost2010Prop44ColorIndex
 90
        5
102
RTVSPost2010Prop44ColorRGB
 90
      255
102
RTVSPost2010PropOp44
 70
     1
102
RTVSPost2010Prop45
280
     0
102
RTVSPost2010PropOp45
 70
     1
102
RTVSPost2010Prop46
 90
       50
102
RTVSPost2010PropOp46
 70
     1
102
RTVSPost2010Prop47
 90
       50
102
RTVSPost2010PropOp47
 70
     1
102
RTVSPost2010Prop48
 90
       50
102
RTVSPost2010PropOp48
 70
     1
102
RTVSPost2010Prop49
280
     0
102
RTVSPost2010PropOp49
 70
     1
102
RTVSPost2010Prop50
 90
       50
102
RTVSPost2010PropOp50
 70
     1
102
RTVSPost2010Prop51ColorIndex
 90
      256
102
RTVSPost2010Prop51ColorRGB
 90
-16777216
102
RTVSPost2010PropOp51
 70
     0
102
RTVSPost2010Prop52
140
1.0
102
RTVSPost2010PropOp52
 70
     0
102
RTVSPost2010Prop53
 90
        2
102
RTVSPost2010PropOp53
 70
     1
102
RTVSPost2010Prop54
  1
strokes_ogs.tif
102
RTVSPost2010PropOp54
 70
     1
102
RTVSPost2010Prop55
280
     0
102
RTVSPost2010PropOp55
 70
     1
102
RTVSPost2010Prop56
140
1.0
102
RTVSPost2010PropOp56
 70
     1
102
RTVSPost2010Prop57
140
1.0
102
RTVSPost2010PropOp57
 70
     1
  0
XRECORD
  5
3B4
102
{ACAD_REACTORS
330
3B3
102
}
330
3B3
100
AcDbXrecord
280
     1
102
RTVSPropertyOp0
 70
     1
102
RTVSPropertyOp1
 70
     1
102
RTVSPropertyOp2
 70
     1
102
RTVSPropertyOp3
 70
     1
102
RTVSPropertyOp4
 70
     1
102
RTVSPropertyOp5
 70
     1
102
RTVSPropertyOp6
 70
     1
102
RTVSPropertyOp7
 70
     1
102
RTVSPropertyOp8
 70
     1
102
RTVSPropertyOp9
 70
     1
102
RTVSPropertyOp10
 70
     1
102
RTVSPropertyOp11
 70
     1
102
RTVSPropertyOp12
 70
     1
102
RTVSPropertyOp13
 70
     1
102
RTVSPropertyOp14
 70
     1
102
RTVSPropertyOp15
 70
     1
102
RTVSPropertyOp16
 70
     1
102
RTVSPropertyOp17
 70
     1
102
RTVSPropertyOp18
 70
     1
102
RTVSPropertyOp19
 70
     1
102
RTVSPropertyOp20
 70
     1
102
RTVSPropertyOp21
 70
     1
102
RTVSPropertyOp22
 70
     1
102
RTVSPropertyOp23
 70
     1
102
RTVSPropertyOp24
 70
     1
102
RTVSPropertyOp25
 70
     1
102
RTVSPropertyOp26
 70
     1
102
RTVSPropertyOp27
 70
     1
102
RTVSPropertyOp28
 70
     1
102
RTVSPropertyOp29
 70
     1
102
RTVSPropertyOp30
 70
     1
102
RTVSPropertyOp31
 70
     1
102
RTVSPropertyOp32
 70
     1
102
RTVSPropertyOp33
 70
     1
102
RTVSPropertyOp34
 70
     1
102
RTVSPropertyOp35
 70
     1
102
RTVSPropertyOp36
 70
     1
102
RTVSPropertyOp37
 70
     1
102
RTVSPropertyOp38
 70
     1
102
RTVSPropertyOp39
 70
     1
102
RTVSPropertyOp40
 70
     1
102
RTVSPropertyOp41
 70
     1
102
RTVSPropertyOp42
 70
     1
102
RTVSPropertyOp43
 70
     1
102
RTVSPropertyOp44
 70
     1
102
RTVSPropertyOp45
 70
     1
102
RTVSPropertyOp46
 70
     1
102
RTVSPropertyOp47
 70
     1
102
RTVSPropertyOp48
 70
     1
102
RTVSPropertyOp49
 70
     1
102
RTVSPropertyOp50
 70
     1
102
RTVSPropertyOp51
 70
     0
102
RTVSPropertyOp52
 70
     0
102
RTVSPropertyOp53
 70
     1
102
RTVSPropertyOp54
 70
     1
102
RTVSPropertyOp55
 70
     1
102
RTVSPropertyOp56
 70
     1
102
RTVSPropertyOp57
 70
     1
102
RTVSPost2010Prop28
280
     0
102
RTVSPost2010PropOp28
 70
     1
102
RTVSPost2010Prop29
280
     1
102
RTVSPost2010PropOp29
 70
     1
102
RTVSPost2010Prop30
280
     1
102
RTVSPost2010PropOp30
 70
     1
102
RTVSPost2010Prop31
280
     0
102
RTVSPost2010PropOp31
 70
     1
102
RTVSPost2010Prop32
280
     0
102
RTVSPost2010PropOp32
 70
     1
102
RTVSPost2010Prop33
280
     0
102
RTVSPost2010PropOp33
 70
     1
102
RTVSPost2010Prop34
280
     0
102
RTVSPost2010PropOp34
 70
     1
102
RTVSPost2010Prop35
280
     0
102
RTVSPost2010PropOp35
 70
     1
102
RTVSPost2010Prop36
280
     0
102
RTVSPost2010PropOp36
 70
     1
102
RTVSPost2010Prop37
 90
       50
102
RTVSPost2010PropOp37
 70
     1
102
RTVSPost2010Prop38
140
0.0
102
RTVSPost2010PropOp38
 70
     1
102
RTVSPost2010Prop39
140
1.0
102
RTVSPost2010PropOp39
 70
     1
102
RTVSPost2010Prop40
 90
        0
102
RTVSPost2010PropOp40
 70
     1
102
RTVSPost2010Prop41ColorIndex
 90
       18
102
RTVSPost2010Prop41ColorRGB
 90
        0
102
RTVSPost2010PropOp41
 70
     1
102
RTVSPost2010Prop42
 90
       50
102
RTVSPost2010PropOp42
 70
     1
102
RTVSPost2010Prop43
 90
        3
102
RTVSPost2010PropOp43
 70
     1
102
RTVSPost2010Prop44ColorIndex
 90
        5
102
RTVSPost2010Prop44ColorRGB
 90
      255
102
RTVSPost2010PropOp44
 70
     1
102
RTVSPost2010Prop45
280
     0
102
RTVSPost2010PropOp45
 70
     1
102
RTVSPost2010Prop46
 90
       50
102
RTVSPost2010PropOp46
 70
     1
102
RTVSPost2010Prop47
 90
       50
102
RTVSPost2010PropOp47
 70
     1
102
RTVSPost2010Prop48
 90
       50
102
RTVSPost2010PropOp48
 70
     1
102
RTVSPost2010Prop49
280
     0
102
RTVSPost2010PropOp49
 70
     1
102
RTVSPost2010Prop50
 90
       50
102
RTVSPost2010PropOp50
 70
     1
102
RTVSPost2010Prop51ColorIndex
 90
      256
102
RTVSPost2010Prop51ColorRGB
 90
-16777216
102
RTVSPost2010PropOp51
 70
     0
102
RTVSPost2010Prop52
140
1.0
102
RTVSPost2010PropOp52
 70
     0
102
RTVSPost2010Prop53
 90
        2
102
RTVSPost2010PropOp53
 70
     1
102
RTVSPost2010Prop54
  1
strokes_ogs.tif
102
RTVSPost2010PropOp54
 70
     1
102
RTVSPost2010Prop55
280
     0
102
RTVSPost2010PropOp55
 70
     1
102
RTVSPost2010Prop56
140
1.0
102
RTVSPost2010PropOp56
 70
     1
102
RTVSPost2010Prop57
140
1.0
102
RTVSPost2010PropOp57
 70
     1
  0
XRECORD
  5
3B6
102
{ACAD_REACTORS
330
3B5
102
}
330
3B5
100
AcDbXrecord
280
     1
102
RTVSPropertyOp0
 70
     1
102
RTVSPropertyOp1
 70
     1
102
RTVSPropertyOp2
 70
     1
102
RTVSPropertyOp3
 70
     1
102
RTVSPropertyOp4
 70
     1
102
RTVSPropertyOp5
 70
     1
102
RTVSPropertyOp6
 70
     1
102
RTVSPropertyOp7
 70
     1
102
RTVSPropertyOp8
 70
     1
102
RTVSPropertyOp9
 70
     1
102
RTVSPropertyOp10
 70
     1
102
RTVSPropertyOp11
 70
     1
102
RTVSPropertyOp12
 70
     1
102
RTVSPropertyOp13
 70
     1
102
RTVSPropertyOp14
 70
     1
102
RTVSPropertyOp15
 70
     1
102
RTVSPropertyOp16
 70
     1
102
RTVSPropertyOp17
 70
     1
102
RTVSPropertyOp18
 70
     1
102
RTVSPropertyOp19
 70
     1
102
RTVSPropertyOp20
 70
     1
102
RTVSPropertyOp21
 70
     1
102
RTVSPropertyOp22
 70
     1
102
RTVSPropertyOp23
 70
     1
102
RTVSPropertyOp24
 70
     1
102
RTVSPropertyOp25
 70
     1
102
RTVSPropertyOp26
 70
     1
102
RTVSPropertyOp27
 70
     1
102
RTVSPropertyOp28
 70
     1
102
RTVSPropertyOp29
 70
     1
102
RTVSPropertyOp30
 70
     1
102
RTVSPropertyOp31
 70
     1
102
RTVSPropertyOp32
 70
     1
102
RTVSPropertyOp33
 70
     1
102
RTVSPropertyOp34
 70
     1
102
RTVSPropertyOp35
 70
     1
102
RTVSPropertyOp36
 70
     1
102
RTVSPropertyOp37
 70
     1
102
RTVSPropertyOp38
 70
     1
102
RTVSPropertyOp39
 70
     1
102
RTVSPropertyOp40
 70
     1
102
RTVSPropertyOp41
 70
     1
102
RTVSPropertyOp42
 70
     1
102
RTVSPropertyOp43
 70
     1
102
RTVSPropertyOp44
 70
     1
102
RTVSPropertyOp45
 70
     1
102
RTVSPropertyOp46
 70
     1
102
RTVSPropertyOp47
 70
     1
102
RTVSPropertyOp48
 70
     1
102
RTVSPropertyOp49
 70
     1
102
RTVSPropertyOp50
 70
     1
102
RTVSPropertyOp51
 70
     0
102
RTVSPropertyOp52
 70
     0
102
RTVSPropertyOp53
 70
     1
102
RTVSPropertyOp54
 70
     1
102
RTVSPropertyOp55
 70
     1
102
RTVSPropertyOp56
 70
     1
102
RTVSPropertyOp57
 70
     1
102
RTVSPost2010Prop28
280
     0
102
RTVSPost2010PropOp28
 70
     1
102
RTVSPost2010Prop29
280
     1
102
RTVSPost2010PropOp29
 70
     1
102
RTVSPost2010Prop30
280
     1
102
RTVSPost2010PropOp30
 70
     1
102
RTVSPost2010Prop31
280
     0
102
RTVSPost2010PropOp31
 70
     1
102
RTVSPost2010Prop32
280
     0
102
RTVSPost2010PropOp32
 70
     1
102
RTVSPost2010Prop33
280
     0
102
RTVSPost2010PropOp33
 70
     1
102
RTVSPost2010Prop34
280
     0
102
RTVSPost2010PropOp34
 70
     1
102
RTVSPost2010Prop35
280
     0
102
RTVSPost2010PropOp35
 70
     1
102
RTVSPost2010Prop36
280
     0
102
RTVSPost2010PropOp36
 70
     1
102
RTVSPost2010Prop37
 90
       50
102
RTVSPost2010PropOp37
 70
     1
102
RTVSPost2010Prop38
140
0.0
102
RTVSPost2010PropOp38
 70
     1
102
RTVSPost2010Prop39
140
1.0
102
RTVSPost2010PropOp39
 70
     1
102
RTVSPost2010Prop40
 90
        0
102
RTVSPost2010PropOp40
 70
     1
102
RTVSPost2010Prop41ColorIndex
 90
       18
102
RTVSPost2010Prop41ColorRGB
 90
        0
102
RTVSPost2010PropOp41
 70
     1
102
RTVSPost2010Prop42
 90
       50
102
RTVSPost2010PropOp42
 70
     1
102
RTVSPost2010Prop43
 90
        3
102
RTVSPost2010PropOp43
 70
     1
102
RTVSPost2010Prop44ColorIndex
 90
        5
102
RTVSPost2010Prop44ColorRGB
 90
      255
102
RTVSPost2010PropOp44
 70
     1
102
RTVSPost2010Prop45
280
     0
102
RTVSPost2010PropOp45
 70
     1
102
RTVSPost2010Prop46
 90
       50
102
RTVSPost2010PropOp46
 70
     1
102
RTVSPost2010Prop47
 90
       50
102
RTVSPost2010PropOp47
 70
     1
102
RTVSPost2010Prop48
 90
       50
102
RTVSPost2010PropOp48
 70
     1
102
RTVSPost2010Prop49
280
     0
102
RTVSPost2010PropOp49
 70
     1
102
RTVSPost2010Prop50
 90
       50
102
RTVSPost2010PropOp50
 70
     1
102
RTVSPost2010Prop51ColorIndex
 90
      256
102
RTVSPost2010Prop51ColorRGB
 90
-16777216
102
RTVSPost2010PropOp51
 70
     0
102
RTVSPost2010Prop52
140
1.0
102
RTVSPost2010PropOp52
 70
     0
102
RTVSPost2010Prop53
 90
        2
102
RTVSPost2010PropOp53
 70
     1
102
RTVSPost2010Prop54
  1
strokes_ogs.tif
102
RTVSPost2010PropOp54
 70
     1
102
RTVSPost2010Prop55
280
     0
102
RTVSPost2010PropOp55
 70
     1
102
RTVSPost2010Prop56
140
1.0
102
RTVSPost2010PropOp56
 70
     1
102
RTVSPost2010Prop57
140
1.0
102
RTVSPost2010PropOp57
 70
     1
  0
XRECORD
  5
3BC
102
{ACAD_REACTORS
330
3BB
102
}
330
3BB
100
AcDbXrecord
280
     1
102
RTVSPropertyOp0
 70
     1
102
RTVSPropertyOp1
 70
     1
102
RTVSPropertyOp2
 70
     1
102
RTVSPropertyOp3
 70
     1
102
RTVSPropertyOp4
 70
     1
102
RTVSPropertyOp5
 70
     1
102
RTVSPropertyOp6
 70
     1
102
RTVSPropertyOp7
 70
     1
102
RTVSPropertyOp8
 70
     1
102
RTVSPropertyOp9
 70
     1
102
RTVSPropertyOp10
 70
     1
102
RTVSPropertyOp11
 70
     1
102
RTVSPropertyOp12
 70
     1
102
RTVSPropertyOp13
 70
     1
102
RTVSPropertyOp14
 70
     1
102
RTVSPropertyOp15
 70
     1
102
RTVSPropertyOp16
 70
     1
102
RTVSPropertyOp17
 70
     1
102
RTVSPropertyOp18
 70
     1
102
RTVSPropertyOp19
 70
     1
102
RTVSPropertyOp20
 70
     1
102
RTVSPropertyOp21
 70
     1
102
RTVSPropertyOp22
 70
     1
102
RTVSPropertyOp23
 70
     1
102
RTVSPropertyOp24
 70
     1
102
RTVSPropertyOp25
 70
     1
102
RTVSPropertyOp26
 70
     1
102
RTVSPropertyOp27
 70
     1
102
RTVSPropertyOp28
 70
     1
102
RTVSPropertyOp29
 70
     1
102
RTVSPropertyOp30
 70
     1
102
RTVSPropertyOp31
 70
     1
102
RTVSPropertyOp32
 70
     1
102
RTVSPropertyOp33
 70
     1
102
RTVSPropertyOp34
 70
     1
102
RTVSPropertyOp35
 70
     1
102
RTVSPropertyOp36
 70
     1
102
RTVSPropertyOp37
 70
     1
102
RTVSPropertyOp38
 70
     1
102
RTVSPropertyOp39
 70
     1
102
RTVSPropertyOp40
 70
     1
102
RTVSPropertyOp41
 70
     1
102
RTVSPropertyOp42
 70
     1
102
RTVSPropertyOp43
 70
     1
102
RTVSPropertyOp44
 70
     1
102
RTVSPropertyOp45
 70
     1
102
RTVSPropertyOp46
 70
     1
102
RTVSPropertyOp47
 70
     1
102
RTVSPropertyOp48
 70
     1
102
RTVSPropertyOp49
 70
     1
102
RTVSPropertyOp50
 70
     1
102
RTVSPropertyOp51
 70
     0
102
RTVSPropertyOp52
 70
     0
102
RTVSPropertyOp53
 70
     1
102
RTVSPropertyOp54
 70
     1
102
RTVSPropertyOp55
 70
     1
102
RTVSPropertyOp56
 70
     1
102
RTVSPropertyOp57
 70
     1
102
RTVSPost2010Prop28
280
     0
102
RTVSPost2010PropOp28
 70
     1
102
RTVSPost2010Prop29
280
     1
102
RTVSPost2010PropOp29
 70
     1
102
RTVSPost2010Prop30
280
     1
102
RTVSPost2010PropOp30
 70
     1
102
RTVSPost2010Prop31
280
     0
102
RTVSPost2010PropOp31
 70
     1
102
RTVSPost2010Prop32
280
     0
102
RTVSPost2010PropOp32
 70
     1
102
RTVSPost2010Prop33
280
     0
102
RTVSPost2010PropOp33
 70
     1
102
RTVSPost2010Prop34
280
     0
102
RTVSPost2010PropOp34
 70
     1
102
RTVSPost2010Prop35
280
     0
102
RTVSPost2010PropOp35
 70
     1
102
RTVSPost2010Prop36
280
     0
102
RTVSPost2010PropOp36
 70
     1
102
RTVSPost2010Prop37
 90
       50
102
RTVSPost2010PropOp37
 70
     1
102
RTVSPost2010Prop38
140
0.0
102
RTVSPost2010PropOp38
 70
     1
102
RTVSPost2010Prop39
140
1.0
102
RTVSPost2010PropOp39
 70
     1
102
RTVSPost2010Prop40
 90
        0
102
RTVSPost2010PropOp40
 70
     1
102
RTVSPost2010Prop41ColorIndex
 90
       18
102
RTVSPost2010Prop41ColorRGB
 90
        0
102
RTVSPost2010PropOp41
 70
     1
102
RTVSPost2010Prop42
 90
       50
102
RTVSPost2010PropOp42
 70
     1
102
RTVSPost2010Prop43
 90
        3
102
RTVSPost2010PropOp43
 70
     1
102
RTVSPost2010Prop44ColorIndex
 90
        5
102
RTVSPost2010Prop44ColorRGB
 90
      255
102
RTVSPost2010PropOp44
 70
     1
102
RTVSPost2010Prop45
280
     0
102
RTVSPost2010PropOp45
 70
     1
102
RTVSPost2010Prop46
 90
       50
102
RTVSPost2010PropOp46
 70
     1
102
RTVSPost2010Prop47
 90
       50
102
RTVSPost2010PropOp47
 70
     1
102
RTVSPost2010Prop48
 90
       50
102
RTVSPost2010PropOp48
 70
     1
102
RTVSPost2010Prop49
280
     0
102
RTVSPost2010PropOp49
 70
     1
102
RTVSPost2010Prop50
 90
       50
102
RTVSPost2010PropOp50
 70
     1
102
RTVSPost2010Prop51ColorIndex
 90
      256
102
RTVSPost2010Prop51ColorRGB
 90
-16777216
102
RTVSPost2010PropOp51
 70
     0
102
RTVSPost2010Prop52
140
1.0
102
RTVSPost2010PropOp52
 70
     0
102
RTVSPost2010Prop53
 90
        2
102
RTVSPost2010PropOp53
 70
     1
102
RTVSPost2010Prop54
  1
strokes_ogs.tif
102
RTVSPost2010PropOp54
 70
     1
102
RTVSPost2010Prop55
280
     0
102
RTVSPost2010PropOp55
 70
     1
102
RTVSPost2010Prop56
140
1.0
102
RTVSPost2010PropOp56
 70
     1
102
RTVSPost2010Prop57
140
1.0
102
RTVSPost2010PropOp57
 70
     1
  0
XRECORD
  5
3D0
102
{ACAD_REACTORS
330
3CF
102
}
330
3CF
100
AcDbXrecord
280
     1
102
RTVSPropertyOp0
 70
     0
102
RTVSPropertyOp1
 70
     0
102
RTVSPropertyOp2
 70
     0
102
RTVSPropertyOp3
 70
     0
102
RTVSPropertyOp4
 70
     0
102
RTVSPropertyOp5
 70
     0
102
RTVSPropertyOp6
 70
     0
102
RTVSPropertyOp7
 70
     0
102
RTVSPropertyOp8
 70
     0
102
RTVSPropertyOp9
 70
     0
102
RTVSPropertyOp10
 70
     0
102
RTVSPropertyOp11
 70
     0
102
RTVSPropertyOp12
 70
     0
102
RTVSPropertyOp13
 70
     0
102
RTVSPropertyOp14
 70
     2
102
RTVSPropertyOp15
 70
     0
102
RTVSPropertyOp16
 70
     0
102
RTVSPropertyOp17
 70
     0
102
RTVSPropertyOp18
 70
     0
102
RTVSPropertyOp19
 70
     0
102
RTVSPropertyOp20
 70
     0
102
RTVSPropertyOp21
 70
     0
102
RTVSPropertyOp22
 70
     0
102
RTVSPropertyOp23
 70
     0
102
RTVSPropertyOp24
 70
     0
102
RTVSPropertyOp25
 70
     0
102
RTVSPropertyOp26
 70
     0
102
RTVSPropertyOp27
 70
     0
102
RTVSPropertyOp28
 70
     0
102
RTVSPropertyOp29
 70
     0
102
RTVSPropertyOp30
 70
     0
102
RTVSPropertyOp31
 70
     0
102
RTVSPropertyOp32
 70
     0
102
RTVSPropertyOp33
 70
     0
102
RTVSPropertyOp34
 70
     0
102
RTVSPropertyOp35
 70
     0
102
RTVSPropertyOp36
 70
     0
102
RTVSPropertyOp37
 70
     0
102
RTVSPropertyOp38
 70
     0
102
RTVSPropertyOp39
 70
     0
102
RTVSPropertyOp40
 70
     0
102
RTVSPropertyOp41
 70
     0
102
RTVSPropertyOp42
 70
     0
102
RTVSPropertyOp43
 70
     0
102
RTVSPropertyOp44
 70
     0
102
RTVSPropertyOp45
 70
     0
102
RTVSPropertyOp46
 70
     0
102
RTVSPropertyOp47
 70
     0
102
RTVSPropertyOp48
 70
     0
102
RTVSPropertyOp49
 70
     0
102
RTVSPropertyOp50
 70
     0
102
RTVSPropertyOp51
 70
     0
102
RTVSPropertyOp52
 70
     0
102
RTVSPropertyOp53
 70
     0
102
RTVSPropertyOp54
 70
     0
102
RTVSPropertyOp55
 70
     0
102
RTVSPropertyOp56
 70
     0
102
RTVSPropertyOp57
 70
     0
102
RTVSPost2010Prop28
280
     0
102
RTVSPost2010PropOp28
 70
     0
102
RTVSPost2010Prop29
280
     1
102
RTVSPost2010PropOp29
 70
     0
102
RTVSPost2010Prop30
280
     1
102
RTVSPost2010PropOp30
 70
     0
102
RTVSPost2010Prop31
280
     0
102
RTVSPost2010PropOp31
 70
     0
102
RTVSPost2010Prop32
280
     0
102
RTVSPost2010PropOp32
 70
     0
102
RTVSPost2010Prop33
280
     0
102
RTVSPost2010PropOp33
 70
     0
102
RTVSPost2010Prop34
280
     0
102
RTVSPost2010PropOp34
 70
     0
102
RTVSPost2010Prop35
280
     0
102
RTVSPost2010PropOp35
 70
     0
102
RTVSPost2010Prop36
280
     0
102
RTVSPost2010PropOp36
 70
     0
102
RTVSPost2010Prop37
 90
       50
102
RTVSPost2010PropOp37
 70
     0
102
RTVSPost2010Prop38
140
0.0
102
RTVSPost2010PropOp38
 70
     0
102
RTVSPost2010Prop39
140
1.0
102
RTVSPost2010PropOp39
 70
     0
102
RTVSPost2010Prop40
 90
        0
102
RTVSPost2010PropOp40
 70
     0
102
RTVSPost2010Prop41ColorIndex
 90
       18
102
RTVSPost2010Prop41ColorRGB
 90
        0
102
RTVSPost2010PropOp41
 70
     0
102
RTVSPost2010Prop42
 90
       50
102
RTVSPost2010PropOp42
 70
     0
102
RTVSPost2010Prop43
 90
        3
102
RTVSPost2010PropOp43
 70
     0
102
RTVSPost2010Prop44ColorIndex
 90
        5
102
RTVSPost2010Prop44ColorRGB
 90
      255
102
RTVSPost2010PropOp44
 70
     0
102
RTVSPost2010Prop45
280
     0
102
RTVSPost2010PropOp45
 70
     0
102
RTVSPost2010Prop46
 90
       50
102
RTVSPost2010PropOp46
 70
     0
102
RTVSPost2010Prop47
 90
       50
102
RTVSPost2010PropOp47
 70
     0
102
RTVSPost2010Prop48
 90
       50
102
RTVSPost2010PropOp48
 70
     0
102
RTVSPost2010Prop49
280
     0
102
RTVSPost2010PropOp49
 70
     0
102
RTVSPost2010Prop50
 90
       50
102
RTVSPost2010PropOp50
 70
     0
102
RTVSPost2010Prop51ColorIndex
 90
      256
102
RTVSPost2010Prop51ColorRGB
 90
-16777216
102
RTVSPost2010PropOp51
 70
     0
102
RTVSPost2010Prop52
140
1.0
102
RTVSPost2010PropOp52
 70
     0
102
RTVSPost2010Prop53
 90
        2
102
RTVSPost2010PropOp53
 70
     0
102
RTVSPost2010Prop54
  1
strokes_ogs.tif
102
RTVSPost2010PropOp54
 70
     0
102
RTVSPost2010Prop55
280
     0
102
RTVSPost2010PropOp55
 70
     0
102
RTVSPost2010Prop56
140
1.0
102
RTVSPost2010PropOp56
 70
     0
102
RTVSPost2010Prop57
140
1.0
102
RTVSPost2010PropOp57
 70
     0
  0
XRECORD
  5
3CA
102
{ACAD_REACTORS
330
3C9
102
}
330
3C9
100
AcDbXrecord
280
     1
102
RTVSPropertyOp0
 70
     1
102
RTVSPropertyOp1
 70
     1
102
RTVSPropertyOp2
 70
     1
102
RTVSPropertyOp3
 70
     1
102
RTVSPropertyOp4
 70
     1
102
RTVSPropertyOp5
 70
     1
102
RTVSPropertyOp6
 70
     1
102
RTVSPropertyOp7
 70
     1
102
RTVSPropertyOp8
 70
     1
102
RTVSPropertyOp9
 70
     1
102
RTVSPropertyOp10
 70
     1
102
RTVSPropertyOp11
 70
     1
102
RTVSPropertyOp12
 70
     1
102
RTVSPropertyOp13
 70
     1
102
RTVSPropertyOp14
 70
     1
102
RTVSPropertyOp15
 70
     1
102
RTVSPropertyOp16
 70
     1
102
RTVSPropertyOp17
 70
     1
102
RTVSPropertyOp18
 70
     1
102
RTVSPropertyOp19
 70
     1
102
RTVSPropertyOp20
 70
     1
102
RTVSPropertyOp21
 70
     1
102
RTVSPropertyOp22
 70
     1
102
RTVSPropertyOp23
 70
     1
102
RTVSPropertyOp24
 70
     1
102
RTVSPropertyOp25
 70
     1
102
RTVSPropertyOp26
 70
     1
102
RTVSPropertyOp27
 70
     1
102
RTVSPropertyOp28
 70
     1
102
RTVSPropertyOp29
 70
     1
102
RTVSPropertyOp30
 70
     1
102
RTVSPropertyOp31
 70
     1
102
RTVSPropertyOp32
 70
     1
102
RTVSPropertyOp33
 70
     1
102
RTVSPropertyOp34
 70
     1
102
RTVSPropertyOp35
 70
     1
102
RTVSPropertyOp36
 70
     1
102
RTVSPropertyOp37
 70
     1
102
RTVSPropertyOp38
 70
     1
102
RTVSPropertyOp39
 70
     1
102
RTVSPropertyOp40
 70
     1
102
RTVSPropertyOp41
 70
     1
102
RTVSPropertyOp42
 70
     1
102
RTVSPropertyOp43
 70
     1
102
RTVSPropertyOp44
 70
     1
102
RTVSPropertyOp45
 70
     1
102
RTVSPropertyOp46
 70
     1
102
RTVSPropertyOp47
 70
     1
102
RTVSPropertyOp48
 70
     1
102
RTVSPropertyOp49
 70
     1
102
RTVSPropertyOp50
 70
     1
102
RTVSPropertyOp51
 70
     0
102
RTVSPropertyOp52
 70
     0
102
RTVSPropertyOp53
 70
     1
102
RTVSPropertyOp54
 70
     1
102
RTVSPropertyOp55
 70
     1
102
RTVSPropertyOp56
 70
     1
102
RTVSPropertyOp57
 70
     1
102
RTVSPost2010Prop28
280
     0
102
RTVSPost2010PropOp28
 70
     1
102
RTVSPost2010Prop29
280
     1
102
RTVSPost2010PropOp29
 70
     1
102
RTVSPost2010Prop30
280
     1
102
RTVSPost2010PropOp30
 70
     1
102
RTVSPost2010Prop31
280
     0
102
RTVSPost2010PropOp31
 70
     1
102
RTVSPost2010Prop32
280
     0
102
RTVSPost2010PropOp32
 70
     1
102
RTVSPost2010Prop33
280
     0
102
RTVSPost2010PropOp33
 70
     1
102
RTVSPost2010Prop34
280
     0
102
RTVSPost2010PropOp34
 70
     1
102
RTVSPost2010Prop35
280
     0
102
RTVSPost2010PropOp35
 70
     1
102
RTVSPost2010Prop36
280
     0
102
RTVSPost2010PropOp36
 70
     1
102
RTVSPost2010Prop37
 90
       50
102
RTVSPost2010PropOp37
 70
     1
102
RTVSPost2010Prop38
140
0.0
102
RTVSPost2010PropOp38
 70
     1
102
RTVSPost2010Prop39
140
1.0
102
RTVSPost2010PropOp39
 70
     1
102
RTVSPost2010Prop40
 90
        0
102
RTVSPost2010PropOp40
 70
     1
102
RTVSPost2010Prop41ColorIndex
 90
       18
102
RTVSPost2010Prop41ColorRGB
 90
        0
102
RTVSPost2010PropOp41
 70
     1
102
RTVSPost2010Prop42
 90
       50
102
RTVSPost2010PropOp42
 70
     1
102
RTVSPost2010Prop43
 90
        3
102
RTVSPost2010PropOp43
 70
     1
102
RTVSPost2010Prop44ColorIndex
 90
        5
102
RTVSPost2010Prop44ColorRGB
 90
      255
102
RTVSPost2010PropOp44
 70
     1
102
RTVSPost2010Prop45
280
     0
102
RTVSPost2010PropOp45
 70
     1
102
RTVSPost2010Prop46
 90
       50
102
RTVSPost2010PropOp46
 70
     1
102
RTVSPost2010Prop47
 90
       50
102
RTVSPost2010PropOp47
 70
     1
102
RTVSPost2010Prop48
 90
       50
102
RTVSPost2010PropOp48
 70
     1
102
RTVSPost2010Prop49
280
     0
102
RTVSPost2010PropOp49
 70
     1
102
RTVSPost2010Prop50
 90
       50
102
RTVSPost2010PropOp50
 70
     1
102
RTVSPost2010Prop51ColorIndex
 90
      256
102
RTVSPost2010Prop51ColorRGB
 90
-16777216
102
RTVSPost2010PropOp51
 70
     0
102
RTVSPost2010Prop52
140
1.0
102
RTVSPost2010PropOp52
 70
     0
102
RTVSPost2010Prop53
 90
        2
102
RTVSPost2010PropOp53
 70
     1
102
RTVSPost2010Prop54
  1
strokes_ogs.tif
102
RTVSPost2010PropOp54
 70
     1
102
RTVSPost2010Prop55
280
     0
102
RTVSPost2010PropOp55
 70
     1
102
RTVSPost2010Prop56
140
1.0
102
RTVSPost2010PropOp56
 70
     1
102
RTVSPost2010Prop57
140
1.0
102
RTVSPost2010PropOp57
 70
     1
  0
XRECORD
  5
3D2
102
{ACAD_REACTORS
330
3D1
102
}
330
3D1
100
AcDbXrecord
280
     1
102
RTVSPropertyOp0
 70
     0
102
RTVSPropertyOp1
 70
     0
102
RTVSPropertyOp2
 70
     0
102
RTVSPropertyOp3
 70
     0
102
RTVSPropertyOp4
 70
     0
102
RTVSPropertyOp5
 70
     0
102
RTVSPropertyOp6
 70
     0
102
RTVSPropertyOp7
 70
     0
102
RTVSPropertyOp8
 70
     0
102
RTVSPropertyOp9
 70
     0
102
RTVSPropertyOp10
 70
     0
102
RTVSPropertyOp11
 70
     0
102
RTVSPropertyOp12
 70
     0
102
RTVSPropertyOp13
 70
     0
102
RTVSPropertyOp14
 70
     2
102
RTVSPropertyOp15
 70
     0
102
RTVSPropertyOp16
 70
     0
102
RTVSPropertyOp17
 70
     0
102
RTVSPropertyOp18
 70
     0
102
RTVSPropertyOp19
 70
     0
102
RTVSPropertyOp20
 70
     0
102
RTVSPropertyOp21
 70
     0
102
RTVSPropertyOp22
 70
     0
102
RTVSPropertyOp23
 70
     0
102
RTVSPropertyOp24
 70
     0
102
RTVSPropertyOp25
 70
     0
102
RTVSPropertyOp26
 70
     0
102
RTVSPropertyOp27
 70
     0
102
RTVSPropertyOp28
 70
     0
102
RTVSPropertyOp29
 70
     0
102
RTVSPropertyOp30
 70
     0
102
RTVSPropertyOp31
 70
     0
102
RTVSPropertyOp32
 70
     0
102
RTVSPropertyOp33
 70
     0
102
RTVSPropertyOp34
 70
     0
102
RTVSPropertyOp35
 70
     0
102
RTVSPropertyOp36
 70
     0
102
RTVSPropertyOp37
 70
     0
102
RTVSPropertyOp38
 70
     0
102
RTVSPropertyOp39
 70
     0
102
RTVSPropertyOp40
 70
     0
102
RTVSPropertyOp41
 70
     0
102
RTVSPropertyOp42
 70
     0
102
RTVSPropertyOp43
 70
     0
102
RTVSPropertyOp44
 70
     0
102
RTVSPropertyOp45
 70
     0
102
RTVSPropertyOp46
 70
     0
102
RTVSPropertyOp47
 70
     0
102
RTVSPropertyOp48
 70
     0
102
RTVSPropertyOp49
 70
     0
102
RTVSPropertyOp50
 70
     0
102
RTVSPropertyOp51
 70
     0
102
RTVSPropertyOp52
 70
     0
102
RTVSPropertyOp53
 70
     0
102
RTVSPropertyOp54
 70
     0
102
RTVSPropertyOp55
 70
     0
102
RTVSPropertyOp56
 70
     0
102
RTVSPropertyOp57
 70
     0
102
RTVSPost2010Prop28
280
     0
102
RTVSPost2010PropOp28
 70
     0
102
RTVSPost2010Prop29
280
     1
102
RTVSPost2010PropOp29
 70
     0
102
RTVSPost2010Prop30
280
     1
102
RTVSPost2010PropOp30
 70
     0
102
RTVSPost2010Prop31
280
     0
102
RTVSPost2010PropOp31
 70
     0
102
RTVSPost2010Prop32
280
     0
102
RTVSPost2010PropOp32
 70
     0
102
RTVSPost2010Prop33
280
     0
102
RTVSPost2010PropOp33
 70
     0
102
RTVSPost2010Prop34
280
     0
102
RTVSPost2010PropOp34
 70
     0
102
RTVSPost2010Prop35
280
     0
102
RTVSPost2010PropOp35
 70
     0
102
RTVSPost2010Prop36
280
     0
102
RTVSPost2010PropOp36
 70
     0
102
RTVSPost2010Prop37
 90
       50
102
RTVSPost2010PropOp37
 70
     0
102
RTVSPost2010Prop38
140
0.0
102
RTVSPost2010PropOp38
 70
     0
102
RTVSPost2010Prop39
140
1.0
102
RTVSPost2010PropOp39
 70
     0
102
RTVSPost2010Prop40
 90
        0
102
RTVSPost2010PropOp40
 70
     0
102
RTVSPost2010Prop41ColorIndex
 90
       18
102
RTVSPost2010Prop41ColorRGB
 90
        0
102
RTVSPost2010PropOp41
 70
     0
102
RTVSPost2010Prop42
 90
       50
102
RTVSPost2010PropOp42
 70
     0
102
RTVSPost2010Prop43
 90
        3
102
RTVSPost2010PropOp43
 70
     0
102
RTVSPost2010Prop44ColorIndex
 90
        5
102
RTVSPost2010Prop44ColorRGB
 90
      255
102
RTVSPost2010PropOp44
 70
     0
102
RTVSPost2010Prop45
280
     0
102
RTVSPost2010PropOp45
 70
     0
102
RTVSPost2010Prop46
 90
       50
102
RTVSPost2010PropOp46
 70
     0
102
RTVSPost2010Prop47
 90
       50
102
RTVSPost2010PropOp47
 70
     0
102
RTVSPost2010Prop48
 90
       50
102
RTVSPost2010PropOp48
 70
     0
102
RTVSPost2010Prop49
280
     0
102
RTVSPost2010PropOp49
 70
     0
102
RTVSPost2010Prop50
 90
       50
102
RTVSPost2010PropOp50
 70
     0
102
RTVSPost2010Prop51ColorIndex
 90
      256
102
RTVSPost2010Prop51ColorRGB
 90
-16777216
102
RTVSPost2010PropOp51
 70
     0
102
RTVSPost2010Prop52
140
1.0
102
RTVSPost2010PropOp52
 70
     0
102
RTVSPost2010Prop53
 90
        2
102
RTVSPost2010PropOp53
 70
     0
102
RTVSPost2010Prop54
  1
strokes_ogs.tif
102
RTVSPost2010PropOp54
 70
     0
102
RTVSPost2010Prop55
280
     0
102
RTVSPost2010PropOp55
 70
     0
102
RTVSPost2010Prop56
140
1.0
102
RTVSPost2010PropOp56
 70
     0
102
RTVSPost2010Prop57
140
1.0
102
RTVSPost2010PropOp57
 70
     0
  0
XRECORD
  5
3C0
102
{ACAD_REACTORS
330
3BF
102
}
330
3BF
100
AcDbXrecord
280
     1
102
RTVSPropertyOp0
 70
     1
102
RTVSPropertyOp1
 70
     1
102
RTVSPropertyOp2
 70
     1
102
RTVSPropertyOp3
 70
     1
102
RTVSPropertyOp4
 70
     1
102
RTVSPropertyOp5
 70
     1
102
RTVSPropertyOp6
 70
     1
102
RTVSPropertyOp7
 70
     1
102
RTVSPropertyOp8
 70
     1
102
RTVSPropertyOp9
 70
     1
102
RTVSPropertyOp10
 70
     1
102
RTVSPropertyOp11
 70
     1
102
RTVSPropertyOp12
 70
     1
102
RTVSPropertyOp13
 70
     1
102
RTVSPropertyOp14
 70
     1
102
RTVSPropertyOp15
 70
     1
102
RTVSPropertyOp16
 70
     1
102
RTVSPropertyOp17
 70
     1
102
RTVSPropertyOp18
 70
     1
102
RTVSPropertyOp19
 70
     1
102
RTVSPropertyOp20
 70
     1
102
RTVSPropertyOp21
 70
     1
102
RTVSPropertyOp22
 70
     1
102
RTVSPropertyOp23
 70
     1
102
RTVSPropertyOp24
 70
     1
102
RTVSPropertyOp25
 70
     1
102
RTVSPropertyOp26
 70
     1
102
RTVSPropertyOp27
 70
     1
102
RTVSPropertyOp28
 70
     1
102
RTVSPropertyOp29
 70
     1
102
RTVSPropertyOp30
 70
     1
102
RTVSPropertyOp31
 70
     1
102
RTVSPropertyOp32
 70
     1
102
RTVSPropertyOp33
 70
     1
102
RTVSPropertyOp34
 70
     1
102
RTVSPropertyOp35
 70
     1
102
RTVSPropertyOp36
 70
     1
102
RTVSPropertyOp37
 70
     1
102
RTVSPropertyOp38
 70
     1
102
RTVSPropertyOp39
 70
     1
102
RTVSPropertyOp40
 70
     1
102
RTVSPropertyOp41
 70
     1
102
RTVSPropertyOp42
 70
     1
102
RTVSPropertyOp43
 70
     1
102
RTVSPropertyOp44
 70
     1
102
RTVSPropertyOp45
 70
     1
102
RTVSPropertyOp46
 70
     1
102
RTVSPropertyOp47
 70
     1
102
RTVSPropertyOp48
 70
     1
102
RTVSPropertyOp49
 70
     1
102
RTVSPropertyOp50
 70
     1
102
RTVSPropertyOp51
 70
     0
102
RTVSPropertyOp52
 70
     0
102
RTVSPropertyOp53
 70
     1
102
RTVSPropertyOp54
 70
     1
102
RTVSPropertyOp55
 70
     1
102
RTVSPropertyOp56
 70
     1
102
RTVSPropertyOp57
 70
     1
102
RTVSPost2010Prop28
280
     0
102
RTVSPost2010PropOp28
 70
     1
102
RTVSPost2010Prop29
280
     1
102
RTVSPost2010PropOp29
 70
     1
102
RTVSPost2010Prop30
280
     1
102
RTVSPost2010PropOp30
 70
     1
102
RTVSPost2010Prop31
280
     0
102
RTVSPost2010PropOp31
 70
     1
102
RTVSPost2010Prop32
280
     0
102
RTVSPost2010PropOp32
 70
     1
102
RTVSPost2010Prop33
280
     0
102
RTVSPost2010PropOp33
 70
     1
102
RTVSPost2010Prop34
280
     0
102
RTVSPost2010PropOp34
 70
     1
102
RTVSPost2010Prop35
280
     0
102
RTVSPost2010PropOp35
 70
     1
102
RTVSPost2010Prop36
280
     0
102
RTVSPost2010PropOp36
 70
     1
102
RTVSPost2010Prop37
 90
       50
102
RTVSPost2010PropOp37
 70
     1
102
RTVSPost2010Prop38
140
0.0
102
RTVSPost2010PropOp38
 70
     1
102
RTVSPost2010Prop39
140
1.0
102
RTVSPost2010PropOp39
 70
     1
102
RTVSPost2010Prop40
 90
        0
102
RTVSPost2010PropOp40
 70
     1
102
RTVSPost2010Prop41ColorIndex
 90
       18
102
RTVSPost2010Prop41ColorRGB
 90
        0
102
RTVSPost2010PropOp41
 70
     1
102
RTVSPost2010Prop42
 90
       50
102
RTVSPost2010PropOp42
 70
     1
102
RTVSPost2010Prop43
 90
        3
102
RTVSPost2010PropOp43
 70
     1
102
RTVSPost2010Prop44ColorIndex
 90
        5
102
RTVSPost2010Prop44ColorRGB
 90
      255
102
RTVSPost2010PropOp44
 70
     1
102
RTVSPost2010Prop45
280
     0
102
RTVSPost2010PropOp45
 70
     1
102
RTVSPost2010Prop46
 90
       50
102
RTVSPost2010PropOp46
 70
     1
102
RTVSPost2010Prop47
 90
       50
102
RTVSPost2010PropOp47
 70
     1
102
RTVSPost2010Prop48
 90
       50
102
RTVSPost2010PropOp48
 70
     1
102
RTVSPost2010Prop49
280
     0
102
RTVSPost2010PropOp49
 70
     1
102
RTVSPost2010Prop50
 90
       50
102
RTVSPost2010PropOp50
 70
     1
102
RTVSPost2010Prop51ColorIndex
 90
      256
102
RTVSPost2010Prop51ColorRGB
 90
-16777216
102
RTVSPost2010PropOp51
 70
     0
102
RTVSPost2010Prop52
140
1.0
102
RTVSPost2010PropOp52
 70
     0
102
RTVSPost2010Prop53
 90
        2
102
RTVSPost2010PropOp53
 70
     1
102
RTVSPost2010Prop54
  1
strokes_ogs.tif
102
RTVSPost2010PropOp54
 70
     1
102
RTVSPost2010Prop55
280
     0
102
RTVSPost2010PropOp55
 70
     1
102
RTVSPost2010Prop56
140
1.0
102
RTVSPost2010PropOp56
 70
     1
102
RTVSPost2010Prop57
140
1.0
102
RTVSPost2010PropOp57
 70
     1
  0
XRECORD
  5
3DE
102
{ACAD_REACTORS
330
3DD
102
}
330
3DD
100
AcDbXrecord
280
     1
102
RTVSPropertyOp0
 70
     1
102
RTVSPropertyOp1
 70
     1
102
RTVSPropertyOp2
 70
     1
102
RTVSPropertyOp3
 70
     1
102
RTVSPropertyOp4
 70
     1
102
RTVSPropertyOp5
 70
     1
102
RTVSPropertyOp6
 70
     1
102
RTVSPropertyOp7
 70
     1
102
RTVSPropertyOp8
 70
     1
102
RTVSPropertyOp9
 70
     1
102
RTVSPropertyOp10
 70
     1
102
RTVSPropertyOp11
 70
     1
102
RTVSPropertyOp12
 70
     1
102
RTVSPropertyOp13
 70
     1
102
RTVSPropertyOp14
 70
     1
102
RTVSPropertyOp15
 70
     1
102
RTVSPropertyOp16
 70
     1
102
RTVSPropertyOp17
 70
     1
102
RTVSPropertyOp18
 70
     1
102
RTVSPropertyOp19
 70
     1
102
RTVSPropertyOp20
 70
     1
102
RTVSPropertyOp21
 70
     1
102
RTVSPropertyOp22
 70
     1
102
RTVSPropertyOp23
 70
     1
102
RTVSPropertyOp24
 70
     1
102
RTVSPropertyOp25
 70
     1
102
RTVSPropertyOp26
 70
     1
102
RTVSPropertyOp27
 70
     1
102
RTVSPropertyOp28
 70
     1
102
RTVSPropertyOp29
 70
     1
102
RTVSPropertyOp30
 70
     1
102
RTVSPropertyOp31
 70
     1
102
RTVSPropertyOp32
 70
     1
102
RTVSPropertyOp33
 70
     1
102
RTVSPropertyOp34
 70
     1
102
RTVSPropertyOp35
 70
     1
102
RTVSPropertyOp36
 70
     1
102
RTVSPropertyOp37
 70
     1
102
RTVSPropertyOp38
 70
     1
102
RTVSPropertyOp39
 70
     1
102
RTVSPropertyOp40
 70
     1
102
RTVSPropertyOp41
 70
     1
102
RTVSPropertyOp42
 70
     1
102
RTVSPropertyOp43
 70
     1
102
RTVSPropertyOp44
 70
     1
102
RTVSPropertyOp45
 70
     1
102
RTVSPropertyOp46
 70
     1
102
RTVSPropertyOp47
 70
     1
102
RTVSPropertyOp48
 70
     1
102
RTVSPropertyOp49
 70
     1
102
RTVSPropertyOp50
 70
     1
102
RTVSPropertyOp51
 70
     0
102
RTVSPropertyOp52
 70
     0
102
RTVSPropertyOp53
 70
     1
102
RTVSPropertyOp54
 70
     1
102
RTVSPropertyOp55
 70
     1
102
RTVSPropertyOp56
 70
     1
102
RTVSPropertyOp57
 70
     1
102
RTVSPost2010Prop28
280
     0
102
RTVSPost2010PropOp28
 70
     1
102
RTVSPost2010Prop29
280
     1
102
RTVSPost2010PropOp29
 70
     1
102
RTVSPost2010Prop30
280
     1
102
RTVSPost2010PropOp30
 70
     1
102
RTVSPost2010Prop31
280
     0
102
RTVSPost2010PropOp31
 70
     1
102
RTVSPost2010Prop32
280
     0
102
RTVSPost2010PropOp32
 70
     1
102
RTVSPost2010Prop33
280
     0
102
RTVSPost2010PropOp33
 70
     1
102
RTVSPost2010Prop34
280
     0
102
RTVSPost2010PropOp34
 70
     1
102
RTVSPost2010Prop35
280
     0
102
RTVSPost2010PropOp35
 70
     1
102
RTVSPost2010Prop36
280
     0
102
RTVSPost2010PropOp36
 70
     1
102
RTVSPost2010Prop37
 90
       50
102
RTVSPost2010PropOp37
 70
     1
102
RTVSPost2010Prop38
140
0.0
102
RTVSPost2010PropOp38
 70
     1
102
RTVSPost2010Prop39
140
1.0
102
RTVSPost2010PropOp39
 70
     1
102
RTVSPost2010Prop40
 90
        0
102
RTVSPost2010PropOp40
 70
     1
102
RTVSPost2010Prop41ColorIndex
 90
       18
102
RTVSPost2010Prop41ColorRGB
 90
        0
102
RTVSPost2010PropOp41
 70
     1
102
RTVSPost2010Prop42
 90
       50
102
RTVSPost2010PropOp42
 70
     1
102
RTVSPost2010Prop43
 90
        3
102
RTVSPost2010PropOp43
 70
     1
102
RTVSPost2010Prop44ColorIndex
 90
        5
102
RTVSPost2010Prop44ColorRGB
 90
      255
102
RTVSPost2010PropOp44
 70
     1
102
RTVSPost2010Prop45
280
     0
102
RTVSPost2010PropOp45
 70
     1
102
RTVSPost2010Prop46
 90
       50
102
RTVSPost2010PropOp46
 70
     1
102
RTVSPost2010Prop47
 90
       50
102
RTVSPost2010PropOp47
 70
     1
102
RTVSPost2010Prop48
 90
       50
102
RTVSPost2010PropOp48
 70
     1
102
RTVSPost2010Prop49
280
     0
102
RTVSPost2010PropOp49
 70
     1
102
RTVSPost2010Prop50
 90
       50
102
RTVSPost2010PropOp50
 70
     1
102
RTVSPost2010Prop51ColorIndex
 90
      256
102
RTVSPost2010Prop51ColorRGB
 90
-16777216
102
RTVSPost2010PropOp51
 70
     0
102
RTVSPost2010Prop52
140
1.0
102
RTVSPost2010PropOp52
 70
     0
102
RTVSPost2010Prop53
 90
        2
102
RTVSPost2010PropOp53
 70
     1
102
RTVSPost2010Prop54
  1
strokes_ogs.tif
102
RTVSPost2010PropOp54
 70
     1
102
RTVSPost2010Prop55
280
     0
102
RTVSPost2010PropOp55
 70
     1
102
RTVSPost2010Prop56
140
1.0
102
RTVSPost2010PropOp56
 70
     1
102
RTVSPost2010Prop57
140
1.0
102
RTVSPost2010PropOp57
 70
     1
  0
XRECORD
  5
3DC
102
{ACAD_REACTORS
330
3DB
102
}
330
3DB
100
AcDbXrecord
280
     1
102
RTVSPropertyOp0
 70
     1
102
RTVSPropertyOp1
 70
     1
102
RTVSPropertyOp2
 70
     1
102
RTVSPropertyOp3
 70
     1
102
RTVSPropertyOp4
 70
     1
102
RTVSPropertyOp5
 70
     1
102
RTVSPropertyOp6
 70
     1
102
RTVSPropertyOp7
 70
     1
102
RTVSPropertyOp8
 70
     1
102
RTVSPropertyOp9
 70
     1
102
RTVSPropertyOp10
 70
     1
102
RTVSPropertyOp11
 70
     1
102
RTVSPropertyOp12
 70
     1
102
RTVSPropertyOp13
 70
     1
102
RTVSPropertyOp14
 70
     1
102
RTVSPropertyOp15
 70
     1
102
RTVSPropertyOp16
 70
     1
102
RTVSPropertyOp17
 70
     1
102
RTVSPropertyOp18
 70
     1
102
RTVSPropertyOp19
 70
     1
102
RTVSPropertyOp20
 70
     1
102
RTVSPropertyOp21
 70
     1
102
RTVSPropertyOp22
 70
     1
102
RTVSPropertyOp23
 70
     1
102
RTVSPropertyOp24
 70
     1
102
RTVSPropertyOp25
 70
     1
102
RTVSPropertyOp26
 70
     1
102
RTVSPropertyOp27
 70
     1
102
RTVSPropertyOp28
 70
     1
102
RTVSPropertyOp29
 70
     1
102
RTVSPropertyOp30
 70
     1
102
RTVSPropertyOp31
 70
     1
102
RTVSPropertyOp32
 70
     1
102
RTVSPropertyOp33
 70
     1
102
RTVSPropertyOp34
 70
     1
102
RTVSPropertyOp35
 70
     1
102
RTVSPropertyOp36
 70
     1
102
RTVSPropertyOp37
 70
     1
102
RTVSPropertyOp38
 70
     1
102
RTVSPropertyOp39
 70
     1
102
RTVSPropertyOp40
 70
     1
102
RTVSPropertyOp41
 70
     1
102
RTVSPropertyOp42
 70
     1
102
RTVSPropertyOp43
 70
     1
102
RTVSPropertyOp44
 70
     1
102
RTVSPropertyOp45
 70
     1
102
RTVSPropertyOp46
 70
     1
102
RTVSPropertyOp47
 70
     1
102
RTVSPropertyOp48
 70
     1
102
RTVSPropertyOp49
 70
     1
102
RTVSPropertyOp50
 70
     1
102
RTVSPropertyOp51
 70
     0
102
RTVSPropertyOp52
 70
     0
102
RTVSPropertyOp53
 70
     1
102
RTVSPropertyOp54
 70
     1
102
RTVSPropertyOp55
 70
     1
102
RTVSPropertyOp56
 70
     1
102
RTVSPropertyOp57
 70
     1
102
RTVSPost2010Prop28
280
     0
102
RTVSPost2010PropOp28
 70
     1
102
RTVSPost2010Prop29
280
     1
102
RTVSPost2010PropOp29
 70
     1
102
RTVSPost2010Prop30
280
     1
102
RTVSPost2010PropOp30
 70
     1
102
RTVSPost2010Prop31
280
     0
102
RTVSPost2010PropOp31
 70
     1
102
RTVSPost2010Prop32
280
     0
102
RTVSPost2010PropOp32
 70
     1
102
RTVSPost2010Prop33
280
     0
102
RTVSPost2010PropOp33
 70
     1
102
RTVSPost2010Prop34
280
     0
102
RTVSPost2010PropOp34
 70
     1
102
RTVSPost2010Prop35
280
     0
102
RTVSPost2010PropOp35
 70
     1
102
RTVSPost2010Prop36
280
     0
102
RTVSPost2010PropOp36
 70
     1
102
RTVSPost2010Prop37
 90
       50
102
RTVSPost2010PropOp37
 70
     1
102
RTVSPost2010Prop38
140
0.0
102
RTVSPost2010PropOp38
 70
     1
102
RTVSPost2010Prop39
140
1.0
102
RTVSPost2010PropOp39
 70
     1
102
RTVSPost2010Prop40
 90
        0
102
RTVSPost2010PropOp40
 70
     1
102
RTVSPost2010Prop41ColorIndex
 90
       18
102
RTVSPost2010Prop41ColorRGB
 90
        0
102
RTVSPost2010PropOp41
 70
     1
102
RTVSPost2010Prop42
 90
       50
102
RTVSPost2010PropOp42
 70
     1
102
RTVSPost2010Prop43
 90
        3
102
RTVSPost2010PropOp43
 70
     1
102
RTVSPost2010Prop44ColorIndex
 90
        5
102
RTVSPost2010Prop44ColorRGB
 90
      255
102
RTVSPost2010PropOp44
 70
     1
102
RTVSPost2010Prop45
280
     0
102
RTVSPost2010PropOp45
 70
     1
102
RTVSPost2010Prop46
 90
       50
102
RTVSPost2010PropOp46
 70
     1
102
RTVSPost2010Prop47
 90
       50
102
RTVSPost2010PropOp47
 70
     1
102
RTVSPost2010Prop48
 90
       50
102
RTVSPost2010PropOp48
 70
     1
102
RTVSPost2010Prop49
280
     0
102
RTVSPost2010PropOp49
 70
     1
102
RTVSPost2010Prop50
 90
       50
102
RTVSPost2010PropOp50
 70
     1
102
RTVSPost2010Prop51ColorIndex
 90
      256
102
RTVSPost2010Prop51ColorRGB
 90
-16777216
102
RTVSPost2010PropOp51
 70
     0
102
RTVSPost2010Prop52
140
1.0
102
RTVSPost2010PropOp52
 70
     0
102
RTVSPost2010Prop53
 90
        2
102
RTVSPost2010PropOp53
 70
     1
102
RTVSPost2010Prop54
  1
strokes_ogs.tif
102
RTVSPost2010PropOp54
 70
     1
102
RTVSPost2010Prop55
280
     0
102
RTVSPost2010PropOp55
 70
     1
102
RTVSPost2010Prop56
140
1.0
102
RTVSPost2010PropOp56
 70
     1
102
RTVSPost2010Prop57
140
1.0
102
RTVSPost2010PropOp57
 70
     1
  0
XRECORD
  5
3D6
102
{ACAD_REACTORS
330
3D5
102
}
330
3D5
100
AcDbXrecord
280
     1
102
RTVSPropertyOp0
 70
     1
102
RTVSPropertyOp1
 70
     1
102
RTVSPropertyOp2
 70
     1
102
RTVSPropertyOp3
 70
     1
102
RTVSPropertyOp4
 70
     1
102
RTVSPropertyOp5
 70
     1
102
RTVSPropertyOp6
 70
     1
102
RTVSPropertyOp7
 70
     1
102
RTVSPropertyOp8
 70
     1
102
RTVSPropertyOp9
 70
     1
102
RTVSPropertyOp10
 70
     1
102
RTVSPropertyOp11
 70
     1
102
RTVSPropertyOp12
 70
     1
102
RTVSPropertyOp13
 70
     1
102
RTVSPropertyOp14
 70
     1
102
RTVSPropertyOp15
 70
     1
102
RTVSPropertyOp16
 70
     1
102
RTVSPropertyOp17
 70
     1
102
RTVSPropertyOp18
 70
     1
102
RTVSPropertyOp19
 70
     1
102
RTVSPropertyOp20
 70
     1
102
RTVSPropertyOp21
 70
     1
102
RTVSPropertyOp22
 70
     1
102
RTVSPropertyOp23
 70
     1
102
RTVSPropertyOp24
 70
     1
102
RTVSPropertyOp25
 70
     1
102
RTVSPropertyOp26
 70
     1
102
RTVSPropertyOp27
 70
     1
102
RTVSPropertyOp28
 70
     1
102
RTVSPropertyOp29
 70
     1
102
RTVSPropertyOp30
 70
     1
102
RTVSPropertyOp31
 70
     1
102
RTVSPropertyOp32
 70
     1
102
RTVSPropertyOp33
 70
     1
102
RTVSPropertyOp34
 70
     1
102
RTVSPropertyOp35
 70
     1
102
RTVSPropertyOp36
 70
     1
102
RTVSPropertyOp37
 70
     1
102
RTVSPropertyOp38
 70
     1
102
RTVSPropertyOp39
 70
     1
102
RTVSPropertyOp40
 70
     1
102
RTVSPropertyOp41
 70
     1
102
RTVSPropertyOp42
 70
     1
102
RTVSPropertyOp43
 70
     1
102
RTVSPropertyOp44
 70
     1
102
RTVSPropertyOp45
 70
     1
102
RTVSPropertyOp46
 70
     1
102
RTVSPropertyOp47
 70
     1
102
RTVSPropertyOp48
 70
     1
102
RTVSPropertyOp49
 70
     1
102
RTVSPropertyOp50
 70
     1
102
RTVSPropertyOp51
 70
     0
102
RTVSPropertyOp52
 70
     0
102
RTVSPropertyOp53
 70
     1
102
RTVSPropertyOp54
 70
     1
102
RTVSPropertyOp55
 70
     1
102
RTVSPropertyOp56
 70
     1
102
RTVSPropertyOp57
 70
     1
102
RTVSPost2010Prop28
280
     0
102
RTVSPost2010PropOp28
 70
     1
102
RTVSPost2010Prop29
280
     1
102
RTVSPost2010PropOp29
 70
     1
102
RTVSPost2010Prop30
280
     1
102
RTVSPost2010PropOp30
 70
     1
102
RTVSPost2010Prop31
280
     0
102
RTVSPost2010PropOp31
 70
     1
102
RTVSPost2010Prop32
280
     0
102
RTVSPost2010PropOp32
 70
     1
102
RTVSPost2010Prop33
280
     0
102
RTVSPost2010PropOp33
 70
     1
102
RTVSPost2010Prop34
280
     0
102
RTVSPost2010PropOp34
 70
     1
102
RTVSPost2010Prop35
280
     0
102
RTVSPost2010PropOp35
 70
     1
102
RTVSPost2010Prop36
280
     0
102
RTVSPost2010PropOp36
 70
     1
102
RTVSPost2010Prop37
 90
       50
102
RTVSPost2010PropOp37
 70
     1
102
RTVSPost2010Prop38
140
0.0
102
RTVSPost2010PropOp38
 70
     1
102
RTVSPost2010Prop39
140
1.0
102
RTVSPost2010PropOp39
 70
     1
102
RTVSPost2010Prop40
 90
        0
102
RTVSPost2010PropOp40
 70
     1
102
RTVSPost2010Prop41ColorIndex
 90
       18
102
RTVSPost2010Prop41ColorRGB
 90
        0
102
RTVSPost2010PropOp41
 70
     1
102
RTVSPost2010Prop42
 90
       50
102
RTVSPost2010PropOp42
 70
     1
102
RTVSPost2010Prop43
 90
        3
102
RTVSPost2010PropOp43
 70
     1
102
RTVSPost2010Prop44ColorIndex
 90
        5
102
RTVSPost2010Prop44ColorRGB
 90
      255
102
RTVSPost2010PropOp44
 70
     1
102
RTVSPost2010Prop45
280
     0
102
RTVSPost2010PropOp45
 70
     1
102
RTVSPost2010Prop46
 90
       50
102
RTVSPost2010PropOp46
 70
     1
102
RTVSPost2010Prop47
 90
       50
102
RTVSPost2010PropOp47
 70
     1
102
RTVSPost2010Prop48
 90
       50
102
RTVSPost2010PropOp48
 70
     1
102
RTVSPost2010Prop49
280
     0
102
RTVSPost2010PropOp49
 70
     1
102
RTVSPost2010Prop50
 90
       50
102
RTVSPost2010PropOp50
 70
     1
102
RTVSPost2010Prop51ColorIndex
 90
      256
102
RTVSPost2010Prop51ColorRGB
 90
-16777216
102
RTVSPost2010PropOp51
 70
     0
102
RTVSPost2010Prop52
140
1.0
102
RTVSPost2010PropOp52
 70
     0
102
RTVSPost2010Prop53
 90
        2
102
RTVSPost2010PropOp53
 70
     1
102
RTVSPost2010Prop54
  1
strokes_ogs.tif
102
RTVSPost2010PropOp54
 70
     1
102
RTVSPost2010Prop55
280
     0
102
RTVSPost2010PropOp55
 70
     1
102
RTVSPost2010Prop56
140
1.0
102
RTVSPost2010PropOp56
 70
     1
102
RTVSPost2010Prop57
140
1.0
102
RTVSPost2010PropOp57
 70
     1
  0
XRECORD
  5
3D8
102
{ACAD_REACTORS
330
3D7
102
}
330
3D7
100
AcDbXrecord
280
     1
102
RTVSPropertyOp0
 70
     1
102
RTVSPropertyOp1
 70
     1
102
RTVSPropertyOp2
 70
     1
102
RTVSPropertyOp3
 70
     1
102
RTVSPropertyOp4
 70
     1
102
RTVSPropertyOp5
 70
     1
102
RTVSPropertyOp6
 70
     1
102
RTVSPropertyOp7
 70
     1
102
RTVSPropertyOp8
 70
     1
102
RTVSPropertyOp9
 70
     1
102
RTVSPropertyOp10
 70
     1
102
RTVSPropertyOp11
 70
     1
102
RTVSPropertyOp12
 70
     1
102
RTVSPropertyOp13
 70
     1
102
RTVSPropertyOp14
 70
     1
102
RTVSPropertyOp15
 70
     1
102
RTVSPropertyOp16
 70
     1
102
RTVSPropertyOp17
 70
     1
102
RTVSPropertyOp18
 70
     1
102
RTVSPropertyOp19
 70
     1
102
RTVSPropertyOp20
 70
     1
102
RTVSPropertyOp21
 70
     1
102
RTVSPropertyOp22
 70
     1
102
RTVSPropertyOp23
 70
     1
102
RTVSPropertyOp24
 70
     1
102
RTVSPropertyOp25
 70
     1
102
RTVSPropertyOp26
 70
     1
102
RTVSPropertyOp27
 70
     1
102
RTVSPropertyOp28
 70
     1
102
RTVSPropertyOp29
 70
     1
102
RTVSPropertyOp30
 70
     1
102
RTVSPropertyOp31
 70
     1
102
RTVSPropertyOp32
 70
     1
102
RTVSPropertyOp33
 70
     1
102
RTVSPropertyOp34
 70
     1
102
RTVSPropertyOp35
 70
     1
102
RTVSPropertyOp36
 70
     1
102
RTVSPropertyOp37
 70
     1
102
RTVSPropertyOp38
 70
     1
102
RTVSPropertyOp39
 70
     1
102
RTVSPropertyOp40
 70
     1
102
RTVSPropertyOp41
 70
     1
102
RTVSPropertyOp42
 70
     1
102
RTVSPropertyOp43
 70
     1
102
RTVSPropertyOp44
 70
     1
102
RTVSPropertyOp45
 70
     1
102
RTVSPropertyOp46
 70
     1
102
RTVSPropertyOp47
 70
     1
102
RTVSPropertyOp48
 70
     1
102
RTVSPropertyOp49
 70
     1
102
RTVSPropertyOp50
 70
     1
102
RTVSPropertyOp51
 70
     0
102
RTVSPropertyOp52
 70
     0
102
RTVSPropertyOp53
 70
     1
102
RTVSPropertyOp54
 70
     1
102
RTVSPropertyOp55
 70
     1
102
RTVSPropertyOp56
 70
     1
102
RTVSPropertyOp57
 70
     1
102
RTVSPost2010Prop28
280
     0
102
RTVSPost2010PropOp28
 70
     1
102
RTVSPost2010Prop29
280
     1
102
RTVSPost2010PropOp29
 70
     1
102
RTVSPost2010Prop30
280
     1
102
RTVSPost2010PropOp30
 70
     1
102
RTVSPost2010Prop31
280
     0
102
RTVSPost2010PropOp31
 70
     1
102
RTVSPost2010Prop32
280
     0
102
RTVSPost2010PropOp32
 70
     1
102
RTVSPost2010Prop33
280
     0
102
RTVSPost2010PropOp33
 70
     1
102
RTVSPost2010Prop34
280
     0
102
RTVSPost2010PropOp34
 70
     1
102
RTVSPost2010Prop35
280
     0
102
RTVSPost2010PropOp35
 70
     1
102
RTVSPost2010Prop36
280
     0
102
RTVSPost2010PropOp36
 70
     1
102
RTVSPost2010Prop37
 90
       50
102
RTVSPost2010PropOp37
 70
     1
102
RTVSPost2010Prop38
140
0.0
102
RTVSPost2010PropOp38
 70
     1
102
RTVSPost2010Prop39
140
1.0
102
RTVSPost2010PropOp39
 70
     1
102
RTVSPost2010Prop40
 90
        0
102
RTVSPost2010PropOp40
 70
     1
102
RTVSPost2010Prop41ColorIndex
 90
       18
102
RTVSPost2010Prop41ColorRGB
 90
        0
102
RTVSPost2010PropOp41
 70
     1
102
RTVSPost2010Prop42
 90
       50
102
RTVSPost2010PropOp42
 70
     1
102
RTVSPost2010Prop43
 90
        3
102
RTVSPost2010PropOp43
 70
     1
102
RTVSPost2010Prop44ColorIndex
 90
        5
102
RTVSPost2010Prop44ColorRGB
 90
      255
102
RTVSPost2010PropOp44
 70
     1
102
RTVSPost2010Prop45
280
     0
102
RTVSPost2010PropOp45
 70
     1
102
RTVSPost2010Prop46
 90
       50
102
RTVSPost2010PropOp46
 70
     1
102
RTVSPost2010Prop47
 90
       50
102
RTVSPost2010PropOp47
 70
     1
102
RTVSPost2010Prop48
 90
       50
102
RTVSPost2010PropOp48
 70
     1
102
RTVSPost2010Prop49
280
     0
102
RTVSPost2010PropOp49
 70
     1
102
RTVSPost2010Prop50
 90
       50
102
RTVSPost2010PropOp50
 70
     1
102
RTVSPost2010Prop51ColorIndex
 90
      256
102
RTVSPost2010Prop51ColorRGB
 90
-16777216
102
RTVSPost2010PropOp51
 70
     0
102
RTVSPost2010Prop52
140
1.0
102
RTVSPost2010PropOp52
 70
     0
102
RTVSPost2010Prop53
 90
        2
102
RTVSPost2010PropOp53
 70
     1
102
RTVSPost2010Prop54
  1
strokes_ogs.tif
102
RTVSPost2010PropOp54
 70
     1
102
RTVSPost2010Prop55
280
     0
102
RTVSPost2010PropOp55
 70
     1
102
RTVSPost2010Prop56
140
1.0
102
RTVSPost2010PropOp56
 70
     1
102
RTVSPost2010Prop57
140
1.0
102
RTVSPost2010PropOp57
 70
     1
  0
XRECORD
  5
3C8
102
{ACAD_REACTORS
330
3C7
102
}
330
3C7
100
AcDbXrecord
280
     1
102
RTVSPropertyOp0
 70
     1
102
RTVSPropertyOp1
 70
     1
102
RTVSPropertyOp2
 70
     1
102
RTVSPropertyOp3
 70
     1
102
RTVSPropertyOp4
 70
     1
102
RTVSPropertyOp5
 70
     1
102
RTVSPropertyOp6
 70
     1
102
RTVSPropertyOp7
 70
     1
102
RTVSPropertyOp8
 70
     1
102
RTVSPropertyOp9
 70
     1
102
RTVSPropertyOp10
 70
     1
102
RTVSPropertyOp11
 70
     1
102
RTVSPropertyOp12
 70
     1
102
RTVSPropertyOp13
 70
     1
102
RTVSPropertyOp14
 70
     1
102
RTVSPropertyOp15
 70
     1
102
RTVSPropertyOp16
 70
     1
102
RTVSPropertyOp17
 70
     1
102
RTVSPropertyOp18
 70
     1
102
RTVSPropertyOp19
 70
     1
102
RTVSPropertyOp20
 70
     1
102
RTVSPropertyOp21
 70
     1
102
RTVSPropertyOp22
 70
     1
102
RTVSPropertyOp23
 70
     1
102
RTVSPropertyOp24
 70
     1
102
RTVSPropertyOp25
 70
     1
102
RTVSPropertyOp26
 70
     1
102
RTVSPropertyOp27
 70
     1
102
RTVSPropertyOp28
 70
     1
102
RTVSPropertyOp29
 70
     1
102
RTVSPropertyOp30
 70
     1
102
RTVSPropertyOp31
 70
     1
102
RTVSPropertyOp32
 70
     1
102
RTVSPropertyOp33
 70
     1
102
RTVSPropertyOp34
 70
     1
102
RTVSPropertyOp35
 70
     1
102
RTVSPropertyOp36
 70
     1
102
RTVSPropertyOp37
 70
     1
102
RTVSPropertyOp38
 70
     1
102
RTVSPropertyOp39
 70
     1
102
RTVSPropertyOp40
 70
     1
102
RTVSPropertyOp41
 70
     1
102
RTVSPropertyOp42
 70
     1
102
RTVSPropertyOp43
 70
     1
102
RTVSPropertyOp44
 70
     1
102
RTVSPropertyOp45
 70
     1
102
RTVSPropertyOp46
 70
     1
102
RTVSPropertyOp47
 70
     1
102
RTVSPropertyOp48
 70
     1
102
RTVSPropertyOp49
 70
     1
102
RTVSPropertyOp50
 70
     1
102
RTVSPropertyOp51
 70
     0
102
RTVSPropertyOp52
 70
     0
102
RTVSPropertyOp53
 70
     1
102
RTVSPropertyOp54
 70
     1
102
RTVSPropertyOp55
 70
     1
102
RTVSPropertyOp56
 70
     1
102
RTVSPropertyOp57
 70
     1
102
RTVSPost2010Prop28
280
     0
102
RTVSPost2010PropOp28
 70
     1
102
RTVSPost2010Prop29
280
     1
102
RTVSPost2010PropOp29
 70
     1
102
RTVSPost2010Prop30
280
     1
102
RTVSPost2010PropOp30
 70
     1
102
RTVSPost2010Prop31
280
     0
102
RTVSPost2010PropOp31
 70
     1
102
RTVSPost2010Prop32
280
     0
102
RTVSPost2010PropOp32
 70
     1
102
RTVSPost2010Prop33
280
     0
102
RTVSPost2010PropOp33
 70
     1
102
RTVSPost2010Prop34
280
     0
102
RTVSPost2010PropOp34
 70
     1
102
RTVSPost2010Prop35
280
     0
102
RTVSPost2010PropOp35
 70
     1
102
RTVSPost2010Prop36
280
     0
102
RTVSPost2010PropOp36
 70
     1
102
RTVSPost2010Prop37
 90
       50
102
RTVSPost2010PropOp37
 70
     1
102
RTVSPost2010Prop38
140
0.0
102
RTVSPost2010PropOp38
 70
     1
102
RTVSPost2010Prop39
140
1.0
102
RTVSPost2010PropOp39
 70
     1
102
RTVSPost2010Prop40
 90
        0
102
RTVSPost2010PropOp40
 70
     1
102
RTVSPost2010Prop41ColorIndex
 90
       18
102
RTVSPost2010Prop41ColorRGB
 90
        0
102
RTVSPost2010PropOp41
 70
     1
102
RTVSPost2010Prop42
 90
       50
102
RTVSPost2010PropOp42
 70
     1
102
RTVSPost2010Prop43
 90
        3
102
RTVSPost2010PropOp43
 70
     1
102
RTVSPost2010Prop44ColorIndex
 90
        5
102
RTVSPost2010Prop44ColorRGB
 90
      255
102
RTVSPost2010PropOp44
 70
     1
102
RTVSPost2010Prop45
280
     0
102
RTVSPost2010PropOp45
 70
     1
102
RTVSPost2010Prop46
 90
       50
102
RTVSPost2010PropOp46
 70
     1
102
RTVSPost2010Prop47
 90
       50
102
RTVSPost2010PropOp47
 70
     1
102
RTVSPost2010Prop48
 90
       50
102
RTVSPost2010PropOp48
 70
     1
102
RTVSPost2010Prop49
280
     0
102
RTVSPost2010PropOp49
 70
     1
102
RTVSPost2010Prop50
 90
       50
102
RTVSPost2010PropOp50
 70
     1
102
RTVSPost2010Prop51ColorIndex
 90
      256
102
RTVSPost2010Prop51ColorRGB
 90
-16777216
102
RTVSPost2010PropOp51
 70
     0
102
RTVSPost2010Prop52
140
1.0
102
RTVSPost2010PropOp52
 70
     0
102
RTVSPost2010Prop53
 90
        2
102
RTVSPost2010PropOp53
 70
     1
102
RTVSPost2010Prop54
  1
strokes_ogs.tif
102
RTVSPost2010PropOp54
 70
     1
102
RTVSPost2010Prop55
280
     0
102
RTVSPost2010PropOp55
 70
     1
102
RTVSPost2010Prop56
140
1.0
102
RTVSPost2010PropOp56
 70
     1
102
RTVSPost2010Prop57
140
1.0
102
RTVSPost2010PropOp57
 70
     1
  0
XRECORD
  5
3BA
102
{ACAD_REACTORS
330
3B9
102
}
330
3B9
100
AcDbXrecord
280
     1
102
RTVSPropertyOp0
 70
     1
102
RTVSPropertyOp1
 70
     1
102
RTVSPropertyOp2
 70
     1
102
RTVSPropertyOp3
 70
     1
102
RTVSPropertyOp4
 70
     1
102
RTVSPropertyOp5
 70
     1
102
RTVSPropertyOp6
 70
     1
102
RTVSPropertyOp7
 70
     1
102
RTVSPropertyOp8
 70
     1
102
RTVSPropertyOp9
 70
     1
102
RTVSPropertyOp10
 70
     1
102
RTVSPropertyOp11
 70
     1
102
RTVSPropertyOp12
 70
     1
102
RTVSPropertyOp13
 70
     1
102
RTVSPropertyOp14
 70
     1
102
RTVSPropertyOp15
 70
     1
102
RTVSPropertyOp16
 70
     1
102
RTVSPropertyOp17
 70
     1
102
RTVSPropertyOp18
 70
     1
102
RTVSPropertyOp19
 70
     1
102
RTVSPropertyOp20
 70
     1
102
RTVSPropertyOp21
 70
     1
102
RTVSPropertyOp22
 70
     1
102
RTVSPropertyOp23
 70
     1
102
RTVSPropertyOp24
 70
     1
102
RTVSPropertyOp25
 70
     1
102
RTVSPropertyOp26
 70
     1
102
RTVSPropertyOp27
 70
     1
102
RTVSPropertyOp28
 70
     1
102
RTVSPropertyOp29
 70
     1
102
RTVSPropertyOp30
 70
     1
102
RTVSPropertyOp31
 70
     1
102
RTVSPropertyOp32
 70
     1
102
RTVSPropertyOp33
 70
     1
102
RTVSPropertyOp34
 70
     1
102
RTVSPropertyOp35
 70
     1
102
RTVSPropertyOp36
 70
     1
102
RTVSPropertyOp37
 70
     1
102
RTVSPropertyOp38
 70
     1
102
RTVSPropertyOp39
 70
     1
102
RTVSPropertyOp40
 70
     1
102
RTVSPropertyOp41
 70
     1
102
RTVSPropertyOp42
 70
     1
102
RTVSPropertyOp43
 70
     1
102
RTVSPropertyOp44
 70
     1
102
RTVSPropertyOp45
 70
     1
102
RTVSPropertyOp46
 70
     1
102
RTVSPropertyOp47
 70
     1
102
RTVSPropertyOp48
 70
     1
102
RTVSPropertyOp49
 70
     1
102
RTVSPropertyOp50
 70
     1
102
RTVSPropertyOp51
 70
     0
102
RTVSPropertyOp52
 70
     0
102
RTVSPropertyOp53
 70
     1
102
RTVSPropertyOp54
 70
     1
102
RTVSPropertyOp55
 70
     1
102
RTVSPropertyOp56
 70
     1
102
RTVSPropertyOp57
 70
     1
102
RTVSPost2010Prop28
280
     0
102
RTVSPost2010PropOp28
 70
     1
102
RTVSPost2010Prop29
280
     1
102
RTVSPost2010PropOp29
 70
     1
102
RTVSPost2010Prop30
280
     1
102
RTVSPost2010PropOp30
 70
     1
102
RTVSPost2010Prop31
280
     0
102
RTVSPost2010PropOp31
 70
     1
102
RTVSPost2010Prop32
280
     0
102
RTVSPost2010PropOp32
 70
     1
102
RTVSPost2010Prop33
280
     0
102
RTVSPost2010PropOp33
 70
     1
102
RTVSPost2010Prop34
280
     0
102
RTVSPost2010PropOp34
 70
     1
102
RTVSPost2010Prop35
280
     0
102
RTVSPost2010PropOp35
 70
     1
102
RTVSPost2010Prop36
280
     0
102
RTVSPost2010PropOp36
 70
     1
102
RTVSPost2010Prop37
 90
       50
102
RTVSPost2010PropOp37
 70
     1
102
RTVSPost2010Prop38
140
0.0
102
RTVSPost2010PropOp38
 70
     1
102
RTVSPost2010Prop39
140
1.0
102
RTVSPost2010PropOp39
 70
     1
102
RTVSPost2010Prop40
 90
        0
102
RTVSPost2010PropOp40
 70
     1
102
RTVSPost2010Prop41ColorIndex
 90
       18
102
RTVSPost2010Prop41ColorRGB
 90
        0
102
RTVSPost2010PropOp41
 70
     1
102
RTVSPost2010Prop42
 90
       50
102
RTVSPost2010PropOp42
 70
     1
102
RTVSPost2010Prop43
 90
        3
102
RTVSPost2010PropOp43
 70
     1
102
RTVSPost2010Prop44ColorIndex
 90
        5
102
RTVSPost2010Prop44ColorRGB
 90
      255
102
RTVSPost2010PropOp44
 70
     1
102
RTVSPost2010Prop45
280
     0
102
RTVSPost2010PropOp45
 70
     1
102
RTVSPost2010Prop46
 90
       50
102
RTVSPost2010PropOp46
 70
     1
102
RTVSPost2010Prop47
 90
       50
102
RTVSPost2010PropOp47
 70
     1
102
RTVSPost2010Prop48
 90
       50
102
RTVSPost2010PropOp48
 70
     1
102
RTVSPost2010Prop49
280
     0
102
RTVSPost2010PropOp49
 70
     1
102
RTVSPost2010Prop50
 90
       50
102
RTVSPost2010PropOp50
 70
     1
102
RTVSPost2010Prop51ColorIndex
 90
      256
102
RTVSPost2010Prop51ColorRGB
 90
-16777216
102
RTVSPost2010PropOp51
 70
     0
102
RTVSPost2010Prop52
140
1.0
102
RTVSPost2010PropOp52
 70
     0
102
RTVSPost2010Prop53
 90
        2
102
RTVSPost2010PropOp53
 70
     1
102
RTVSPost2010Prop54
  1
strokes_ogs.tif
102
RTVSPost2010PropOp54
 70
     1
102
RTVSPost2010Prop55
280
     0
102
RTVSPost2010PropOp55
 70
     1
102
RTVSPost2010Prop56
140
1.0
102
RTVSPost2010PropOp56
 70
     1
102
RTVSPost2010Prop57
140
1.0
102
RTVSPost2010PropOp57
 70
     1
  0
XRECORD
  5
3DA
102
{ACAD_REACTORS
330
3D9
102
}
330
3D9
100
AcDbXrecord
280
     1
102
RTVSPropertyOp0
 70
     1
102
RTVSPropertyOp1
 70
     1
102
RTVSPropertyOp2
 70
     1
102
RTVSPropertyOp3
 70
     1
102
RTVSPropertyOp4
 70
     1
102
RTVSPropertyOp5
 70
     1
102
RTVSPropertyOp6
 70
     1
102
RTVSPropertyOp7
 70
     1
102
RTVSPropertyOp8
 70
     1
102
RTVSPropertyOp9
 70
     1
102
RTVSPropertyOp10
 70
     1
102
RTVSPropertyOp11
 70
     1
102
RTVSPropertyOp12
 70
     1
102
RTVSPropertyOp13
 70
     1
102
RTVSPropertyOp14
 70
     1
102
RTVSPropertyOp15
 70
     1
102
RTVSPropertyOp16
 70
     1
102
RTVSPropertyOp17
 70
     1
102
RTVSPropertyOp18
 70
     1
102
RTVSPropertyOp19
 70
     1
102
RTVSPropertyOp20
 70
     1
102
RTVSPropertyOp21
 70
     1
102
RTVSPropertyOp22
 70
     1
102
RTVSPropertyOp23
 70
     1
102
RTVSPropertyOp24
 70
     1
102
RTVSPropertyOp25
 70
     1
102
RTVSPropertyOp26
 70
     1
102
RTVSPropertyOp27
 70
     1
102
RTVSPropertyOp28
 70
     1
102
RTVSPropertyOp29
 70
     1
102
RTVSPropertyOp30
 70
     1
102
RTVSPropertyOp31
 70
     1
102
RTVSPropertyOp32
 70
     1
102
RTVSPropertyOp33
 70
     1
102
RTVSPropertyOp34
 70
     1
102
RTVSPropertyOp35
 70
     1
102
RTVSPropertyOp36
 70
     1
102
RTVSPropertyOp37
 70
     1
102
RTVSPropertyOp38
 70
     1
102
RTVSPropertyOp39
 70
     1
102
RTVSPropertyOp40
 70
     1
102
RTVSPropertyOp41
 70
     1
102
RTVSPropertyOp42
 70
     1
102
RTVSPropertyOp43
 70
     1
102
RTVSPropertyOp44
 70
     1
102
RTVSPropertyOp45
 70
     1
102
RTVSPropertyOp46
 70
     1
102
RTVSPropertyOp47
 70
     1
102
RTVSPropertyOp48
 70
     1
102
RTVSPropertyOp49
 70
     1
102
RTVSPropertyOp50
 70
     1
102
RTVSPropertyOp51
 70
     0
102
RTVSPropertyOp52
 70
     0
102
RTVSPropertyOp53
 70
     1
102
RTVSPropertyOp54
 70
     1
102
RTVSPropertyOp55
 70
     1
102
RTVSPropertyOp56
 70
     1
102
RTVSPropertyOp57
 70
     1
102
RTVSPost2010Prop28
280
     0
102
RTVSPost2010PropOp28
 70
     1
102
RTVSPost2010Prop29
280
     1
102
RTVSPost2010PropOp29
 70
     1
102
RTVSPost2010Prop30
280
     1
102
RTVSPost2010PropOp30
 70
     1
102
RTVSPost2010Prop31
280
     0
102
RTVSPost2010PropOp31
 70
     1
102
RTVSPost2010Prop32
280
     0
102
RTVSPost2010PropOp32
 70
     1
102
RTVSPost2010Prop33
280
     0
102
RTVSPost2010PropOp33
 70
     1
102
RTVSPost2010Prop34
280
     0
102
RTVSPost2010PropOp34
 70
     1
102
RTVSPost2010Prop35
280
     0
102
RTVSPost2010PropOp35
 70
     1
102
RTVSPost2010Prop36
280
     0
102
RTVSPost2010PropOp36
 70
     1
102
RTVSPost2010Prop37
 90
       50
102
RTVSPost2010PropOp37
 70
     1
102
RTVSPost2010Prop38
140
0.0
102
RTVSPost2010PropOp38
 70
     1
102
RTVSPost2010Prop39
140
1.0
102
RTVSPost2010PropOp39
 70
     1
102
RTVSPost2010Prop40
 90
        0
102
RTVSPost2010PropOp40
 70
     1
102
RTVSPost2010Prop41ColorIndex
 90
       18
102
RTVSPost2010Prop41ColorRGB
 90
        0
102
RTVSPost2010PropOp41
 70
     1
102
RTVSPost2010Prop42
 90
       50
102
RTVSPost2010PropOp42
 70
     1
102
RTVSPost2010Prop43
 90
        3
102
RTVSPost2010PropOp43
 70
     1
102
RTVSPost2010Prop44ColorIndex
 90
        5
102
RTVSPost2010Prop44ColorRGB
 90
      255
102
RTVSPost2010PropOp44
 70
     1
102
RTVSPost2010Prop45
280
     0
102
RTVSPost2010PropOp45
 70
     1
102
RTVSPost2010Prop46
 90
       50
102
RTVSPost2010PropOp46
 70
     1
102
RTVSPost2010Prop47
 90
       50
102
RTVSPost2010PropOp47
 70
     1
102
RTVSPost2010Prop48
 90
       50
102
RTVSPost2010PropOp48
 70
     1
102
RTVSPost2010Prop49
280
     0
102
RTVSPost2010PropOp49
 70
     1
102
RTVSPost2010Prop50
 90
       50
102
RTVSPost2010PropOp50
 70
     1
102
RTVSPost2010Prop51ColorIndex
 90
      256
102
RTVSPost2010Prop51ColorRGB
 90
-16777216
102
RTVSPost2010PropOp51
 70
     0
102
RTVSPost2010Prop52
140
1.0
102
RTVSPost2010PropOp52
 70
     0
102
RTVSPost2010Prop53
 90
        2
102
RTVSPost2010PropOp53
 70
     1
102
RTVSPost2010Prop54
  1
strokes_ogs.tif
102
RTVSPost2010PropOp54
 70
     1
102
RTVSPost2010Prop55
280
     0
102
RTVSPost2010PropOp55
 70
     1
102
RTVSPost2010Prop56
140
1.0
102
RTVSPost2010PropOp56
 70
     1
102
RTVSPost2010Prop57
140
1.0
102
RTVSPost2010PropOp57
 70
     1
  0
ENDSEC
  0
EOF
